Song name
# A B C D E F G H I J K L M N O P Q R S T U V W X Y Z

Eric Church - Springsteen chords

Highlighted       Show chord diagrams
Intro:D,G,D,G

   D                G                             D             G
e--5--------7------------------------5--------7-----------------|
b-----7--------7----5------------------7--------7---5-----------|
g------------------------7--------------------------------7-----|
d---------------------------------------------------------------|
a---------------------------------------------------------------|
e---------------------------------------------------------------|




D
To this day when I hear that song
D
I see you standin' there all night long
G                                                           Bm                 Asus2
Discount shades, store-bought tan, flip flops and cut off jeans
D
Somewhere between that set and the sun
D
I'm on fire, I'm born to run
G
You looked at me and I was done
Bm                         Ausu2
Well, with just gettin' started
D
I was singin' to you, you were singin' to me
D
I was so alive, never been more free
G                                               Bm             Asus2
Fired up my daddy's lighter, we sang oh woah woah
D
Stayed there till' they forced us out,
D
Took the long way to your house,
G                                         Bm             Asus2
I can still hear the sound of you sayin' don't go.


D                                       Asus2
When I think about you, I think about seventeen
Bm                                       G
I think about my old jeep, I think about the stars in the sky
D                                     Asus2
Funny how the melody sounds like a memory,
Bm                                       G
Like a soundtrack to a july saturday night.
Em
Springsteen.

         D                       G
e-----5-----------------7----------------------|
b--------7-----------------7----5--------------|
g-------------------------------------7--------|
d----------------------------------------------|
a----------------------------------------------|
e----------------------------------------------|





D
I bumped into you by happenstance,
D
Probably wouldn't even know who I am
G                                              Bm             Asus2
But if I whispered your name I bet, still be a spark.
D                                         D
Back when I was gasoline, and this old tattoo had brand new ink,
G                                                                    Bm                  
       Asus2
And we didn't care what your momma thinks about your name on my arm.
D
Baby is it spring or is it summer,
D
The guitar sound or the beat of that drummer
G                                             Bm             Asus2
You hear sometimes late at night on your radio.
D
Even though you're a million miles away,
D
When you hear Born In The USA,
G                                 Bm               Asus2
You relive those glory days so long ago.


D                                       Asus2
When you think about me, do you think about seventeen
Bm                                              G
Do you think about my old jeep, think about the stars in the sky
D                                 Asus2
Funny how the melody sounds like a memory,
Bm                                G
Like a soundtrack to a July Saturday night.
Em
Springsteen.




         D                       G
e-----5-----------------7----------------------|
b--------7-----------------7----5--------------|
g-------------------------------------7--------|
d----------------------------------------------|
a----------------------------------------------|
e----------------------------------------------|





Springsteen



(X2)
D
Oh woah woahh oh
D
Oh woah woahh oh
G                   Bm       Asus2
Oh woah woahh oh oh oh


D                                  Asus2
Funny how the melody sounds like a memory,
G                                   Bm
Like a soundtrack to a july saturday night.
Em
Springsteen                          (keep playing the intro until the end)

Outro:D,D,G,Bm-Asus2
Tap to rate this tab
 
# A B C D E F G H I J K L M N O P Q R S T U V W X Y Z