Song name
# A B C D E F G H I J K L M N O P Q R S T U V W X Y Z

Eric Church - Creepin tab

-------------------------------------------------------------------------------
                             Creepin' - Eric Church
-------------------------------------------------------------------------------
Just go through and strum some of the chords on here and you'll hear right away where 
they go.
The prechorus is used in several places in the song. its towards the end of every chorus 
after you go through and do the progression.


Tuning: Drop D

Intro
e|-----------------0---3---3------------------------------------------------|
B|-----------------2---3---3------------------------------------------------|
G|-----------------3---0---0------------------------------------------------|
D|------0----------0---0---0---3h5-3p0--------------------------------------|
A|--0h3----------------3---2------------3p0---------------------------------|
E|---------3p0-------------------------------3p0----------------------------|

e|---------0---3---3-------------------------------------------------|
B|---------2---3---3-------------------------------------------------|
G|---------3---0---0-------------------------------------------------|
D|---------0---0---0---3h5-3p0------0--------------------------------|
A|-------------3---2------------3p0----------------------------------|
E|-------------------------------------------------------------------|


e|-----------0---3---3------------------------------------------------|
B|-----------2---3---3------------------------------------------------|
G|-----------3---0---0------------------------------------------------|
D|-----------0---0---0-------------0----------------------------------|
A|---------------3---2--------0-3-------------------------------------|
E|-----------------------3-0------------------------------------------|

e|-----------------0---3---3------------------------------------------------|
B|-----------------2---3---3------------------------------------------------|
G|-----------------3---0---0------------------------------------------------|
D|-----------------0---0---0------------------------------------------------|
A|---------------------3---2---5---3---0------------------------------------|
E|-----------------------------5---3---0------------------------------------|


Verse: strum this one chord for a while
e|-----0----------------------------------------------------------------------|
B|-----3----------------------------------------------------------------------|
G|-----2----------------------------------------------------------------------|
D|-----0----------------------------------------------------------------------|
A|----------------------------------------------------------------------------|
E|----------------------------------------------------------------------------|

pre-chorus ("creepin', ya creepin")
e|-----0---0---0---0---0---0---0---0---0------------------------------------|
B|-----3---3---3---3---3---3---3---3---3------------------------------------|
G|-----2---2---2---2---2---2---2---2---2------------------------------------|
D|-----0---0---0---3---0---0---0---0---0------------------------------------|
A|---------------------------------3----------------------------------------|
E|--------------------------------------------------------------------------|

Chorus:  D    G   G/B  D

e|--------0---3----3---0---------------------------------------------|
B|--------2---3----3---3---------------------------------------------|
G|--------3---0----0---2---------------------------------------------|
D|--------0---0----0---0---------------------------------------------|
A|------------3----2-------------------------------------------------|
E|-------------------------------------------------------------------|

************************************

| /   slide up
| \   slide down
| h   hammer-on
| p   pull-off
| ~   vibrato
| +   harmonic
| x   Mute note
| b   Bend
| pb  Pre-bend
| br  Bend release
| pbr Pre-bend release
| brb Bend release bend

************************************
Tap to rate this tab
 
# A B C D E F G H I J K L M N O P Q R S T U V W X Y Z