Song name
# A B C D E F G H I J K L M N O P Q R S T U V W X Y Z

Eric Church - Creepin tab

-------------------------------------------------------------------------------
                             Creepin' - Eric Church
-------------------------------------------------------------------------------
Tabbed by: dplat
E-mail: dplatner@wisc.edu

Tuning: Drop C (CGCFAD)

Big thanks to Buddy Brown on Youtube for making this happen. See this video for
help http://www.youtube.com/watch?v=rYbivpEBTIU

Here are the main riffs and fills the lead guitar plays throughout the song.
Mix and match them and it sounds good with the record.
 It is by no means complete, I hope this gives one of you guys a start so you can
nail this tab for me


Intro
e|------------------|---------0---0---0------------------------------------------|
B|------------------|---------3---1---3------------------------------------------|
G|------------------|---------2---2---4------optional----------------------------|
D|---------0--------|---------0---0---0-----(3-3/5\3)--3-0---repeat--------------|
A|---0-h-3----------|---------0---0---0------------------------------------------|
E|------------3-p-0-|---------0---0---0------------------------------------------|


Verse Riff - Mostly just playing with a D chord and chorus progression, but they add the 
riff below at times
e|-----0----0--0-------------------------------------------------------------|
B|-----3-3--3--3-------------------------------------------------------------|
G|-----2-2--2--2-------------------------------------------------------------|
D|-----0-0--3--0-------------------------------------------------------------|
A|-----0----0--0-----3---3/5------repeat-------------------------------------|
E|-----0-------0-------------------------------------------------------------|


Chorus    D       Cadd9     G        D  - Can be used during the verses at times
e|--------2--------3--------3--------2---------------------------------------|
B|--------3--------3--------3--------3---------------------------------------|
G|--------2--------0--------0--------2---------------------------------------|
D|--------0--------2--------0--------0---------------------------------------|
A|--------0--------3--------2--------0---------------------------------------|
E|--------0--------x--------3--------0---------------------------------------|


End of Chorus Riff

    Creepin......
e|-------2-------------------------------------------------------------------|
B|-------3-------------------------------------------------------------------|
G|-------2----0--------------------------------------------------------------|
D|-------0-------3--0--------------------------------------------------------|
A|-------0-------------------------------------------------------------------|
E|-------0-------------------------------------------------------------------|


************************************

| /   slide up
| \   slide down
| h   hammer-on
| p   pull-off
| ~   vibrato
| +   harmonic
| x   Mute note
| b   Bend
| pb  Pre-bend
| br  Bend release
| pbr Pre-bend release
| brb Bend release bend

************************************
Tap to rate this tab
# A B C D E F G H I J K L M N O P Q R S T U V W X Y Z