Guitaretab - guitar tabs
Song name
# A B C D E F G H I J K L M N O P Q R S T U V W X Y Z

Eric Church - The Outsiders tab

Eric Church's new song came out.  You should check it out.

Drop D- which is tuning your low e down to a d.

Intro~
When you finish the intro, do it again by sliding back to 12.
For those who can't do slides, go here:

http://idiotsguides.com/static/quickguides/musicperformingarts/how-to-do-slides-
and-bends-on-a-guitar.html

E|----------------------|
B|----------------------|
G|----------------------|
D|----12---10-----------|
A|----12---10-----------|
D|----12---10--9-9-9 ---|

Verse~

E|----------------------------------------------|
B|----------------------------------------------|
G|----------------------------------------------|
D|-------12------------10-----------10----------|
A|----12---12------10----10----10-----10--------|
D|-12------------10----------10------------9-9-9|


Chorus~
Hammer-ons will be in this section.  For those not knowing how to do this, go 
here:  http://www.wikihow.com/Do-Hammer-Ons-and-Pull-Offs
[ Tab from: http://www.guitaretab.com/e/eric-church/371825.html ]
Releases are also present in this section.  Releases are exactly how it sounds; you
realize the fret to mute the strings and get a nice sound out.

E|------------------------------------|
B|------------------------------------|
G|------------------------------------|
D|----12r---10r--9r--------0-h3---0-h3|
A|----12r---10r--9r--------0-h3---0-h3|
D|----12r---10r--9r--------0-h3---0-h3|

At the end of the chorus, to repeat use a slide to get back up to the 12th fret.

Bridge:

More slides here, but easy enough.

E|----------------------------------------|
B|----------------------------------------|
G|----------------------------------------|
D|--10s-12-12-12-10-12----10-12-12-12-10-9|
A|--10s-12-12-12-10-12----10-12-12-12-10-9|
D|--10s-12-12-12-10-12----10-12-12-12-10-9|


Verse 2~
Easiest section IMO

E|-------------|
B|-------------|
G|-------------|
D|----12---10--|
A|----12---10--|
D|----12---10--|

I'm working on the final bit of the song.  A couple rates would help that go quicker.
Thanks guys and leave a comment or suggestion! :)))
Related for The Outsiders tab
The Outsiders chords by Eric Church