Song name
# A B C D E F G H I J K L M N O P Q R S T U V W X Y Z

Eric Church - The Dark Side chords

Highlighted       Show chord diagrams
-----------------------------------------------------------------------------
                             The Dark Side - Eric Church
-----------------------------------------------------------------------------
These are all the chords in the song and how they are picked.

Tuning:Whole Step Down and Drop D

          D
e|----------------------------------------------------------------------------|
B|----------------------------------------------------------------------------|
G|----------------------------------------------------------------------------|
D|------------0-0-------------------------------------------------------------|
A|----------0--0--0-----------------------------------------------------------|
E|------0---------------------------------------------------------------------|

          G
e|--------------------------------------------------------------------------|
B|--------------------------------------------------------------------------|
G|--------------------------------------------------------------------------|
D|------------0-0-----------------------------------------------------------|
A|----------0--0--0---------------------------------------------------------|
E|-----5--------------------------------------------------------------------|

          A
e|--------------------------------------------------------------------------|
B|--------------------------------------------------------------------------|
G|------------2-2-----------------------------------------------------------|
D|----------2--2--2---------------------------------------------------------|
A|-----0--------------------------------------------------------------------|
E|--------------------------------------------------------------------------|
Tap to rate this tab
# A B C D E F G H I J K L M N O P Q R S T U V W X Y Z