Song name
# A B C D E F G H I J K L M N O P Q R S T U V W X Y Z

Eric Clapton - Groaning The Blues tab

e-(12)\-17-17/-----(12)\-17-17/-----(12)\-17-17/----0------------5---------|
B-(12)\-17-17/-----(12)\-17-17/-----(12)\-17-17/----3----------5----8/10---|
G---------------------------------------------------1-----7^(9)------------|
D---------------------------------------------------2----------------------|
A---------------------------------------------------2----------------------|
E-------------------------------------------------0------------------------|


e-----8-10-10^(12)v10----------------------5-------------------------------------------|
B--10-----------------10-------------------------------10-8----------------------------|
G----------------------------7^(9)v7-5---------------------9-7h9p7/5-------------------|
D---------------------------------------7---------------------------7-5h7p5------------|
A--------------------------------------------------------------------------7-6-5/3-----|
E----------------------------------------------------------------------------------5---|

                              
e-5-----5------5------5---------------------------|
B---8-5---8-5----8-5----8-5-----------------------|
G----------------------------7--5h7p5-------------|
D-------------------------------------7\----------|
A-------------------------------------------------|
E-------------------------------------------------|
Tap to rate this tab
 
# A B C D E F G H I J K L M N O P Q R S T U V W X Y Z