Song name
# A B C D E F G H I J K L M N O P Q R S T U V W X Y Z

Eric Clapton - Hey Hey tab

Help us improve GuitareTab! Take a short survey!
Eric Clapton
hey hey
Tabbed by Dieter Oberholster


standard tuning..


part A
--------------------9---9-----0--------------------------|
-----------8--0-----8---8--8-----0-----------------------|
-----------7--0-----9---9--------------------------------|
---------------------------------------------x2----------|
-2-s-7---------------------------------------------------|
--------0--0--0--0----0-------0--------------------------|


part B
------------3--2--0--3---3---0--2--0----------------------|
------------2--2--0--2---2---0--2--0----------------------|
------------2--2--0--2---2---0--2--0----------------------|
---------2-----------------------------------x1-----------|
-----0-----------------0---0------------------------------|
-12/------------------------------------------------------|


part A
--------------------9---9-----0--------------------------|
-----------8--0-----8---8--8-----0-----------------------|
-----------7--0-----9---9--------------------------------|
---------------------------------------------x2----------|
-2-s-7---------------------------------------------------|
--------0--0--0--0----0-------0--------------------------|


part C
----------5--7--5----------3p2p0-2-0----0--4-0-2p0----0--|
--------4----------------------------2--0----------2--0--|
------4---------------------------------1-------------1--|
-2s4--4-----------4s2p0-2---------------2-------------2--|
----------------------------------------2-------------2--|
----------------------------------------0-------------0--|

keep it metal..
Related for Hey Hey tab