Song name
# A B C D E F G H I J K L M N O P Q R S T U V W X Y Z

Eric Clapton - My Fathers Eyes tab

This tab is an unplugged version of this song which is only available at some 
websites.
I wish if the clip of this great version of the song will officially be included in the DVD.
Enjoy!


Intro
e|--------------------------------------------------------|
B|-------5-4-----------5---------------------------5-2-0--|
G|-----4---4---6-4-2/4-4---------4/6-4---------4/6-4-2-1--|
D|-4/6-----4-------------------2-----4-------2------------|
A|---------0---------------2/4-------0---2/4--------------|
E|---------------------4---------------------------4-2-0--|


e|--------------------------------------------------------|
B|--------------------------------------------------------|
G|-----2---2---------------4------------------------------|
D|--2--2---2---2h4-2---2---4------------------------------|
A|-------------------4-----2------------------------------|
E|-----2-2---2--------------------------------------------|
Tap to rate this tab
# A B C D E F G H I J K L M N O P Q R S T U V W X Y Z