Guitaretab - guitar tabs
Song name
# A B C D E F G H I J K L M N O P Q R S T U V W X Y Z

Eric Clapton - Reptile tab

Reptile
eric Clapton

e|---------------------------------------------------------------------------|
B|--------5--7--7/9------(7)9-9-7---5------5-----------------5-7-9-10-9------|
G|---6-7-------------------------------4/6---6\4------4-6-7------------------|
D|---------------------------------------------------------------------------|
A|---------------------------------------------------------------------------|
E|---------------------------------------------------------------------------|



e|---------9-9-7-------------------------------------------------------------|
B|-------7-------9-7----5-------5--------------------------------------------|
G|---7-9-------------/6------/6---6\44-2------2-24/-6\-4----4-6/7\6---4--2-|
D|----------------------------------------4----2-2-2-------------------------|
A|---------------------------------------------------------------------------|
E|---------------------------------------------------------------------------|



e|---------------------------------------------------------------------------|
B|-----7-7-5-----------------------------------------------------------------|
G|------------4/6--4------------(2)-4-2---2----------------------------------|
D|--------------------------2-4---------4------------------------------------|
A|---------------------------------------------------------------------------|
E|---------------------------------------------------------------------------|

           VAR 1 into solo 1
e|---------------------------------------------------------------------------|
B|--------2--3-/5------------------------------------------------------------|
G|--------2--2--6------------------------------------------------------------|
D|---------------------------------------------------------------------------|
A|---------------------------------------------------------------------------|
E|---------------------------------------------------------------------------|

SOLO 1

e|---------------------------------------------------------------------------|
B|----5----------------------------------5-5-6/8-----------------------------|
G|-------7-5--------------------------------------7----------5-7-5---5-------|
D|-----------7--7-5---5--7------------5------------------5-7-------7-----7-5-|
A|-----------------7---------------------------------------------------------|
E|---------------------------------------------------------------------------|



e|---------------------------------------------------------------------------|
B|----5---------------------------------5-5-5-6-6/8-------------------------|
G|-------7-5----------------------------------------7--7-7-7/9--\7-6---------|
D|-----------7--7-5---5-7-----------5-5--------------------------------------|
A|------------------7--------------------------------------------------------|
E|---------------------------------------------------------------------------|


SOLO 2  comes in early from the main riff

e|---------------------------------------------------------------------------|
B|----------------------------8-10-8-----------------------------------------|
G|--------------5---5----7/9-------------9\7--5--7-5-------------------------|
D|---------5-7----7----------------------------------7-7(7-5)-5-------------|
A|----5/7--------------------------------------------------------------------|
E|---------------------------------------------------------------------------|



e|---8---8-------------8----8----8----8----8----8---------------------------|
B|--(8)9-(8)9-8---8-10-(8)9-(8)9-(8)9-(8)9--8----10b/\-8---8-----------------|
G|--------------9----------------------------------------9---9\7--7-5----5---|
D|--------------------------------------------------------------------7------|
A|---------------------------------------------------------------------------|
E|---------------------------------------------------------------------------|


[ Tab from: http://www.guitaretab.com/e/eric-clapton/141679.html ]
e|------------8-8------------------------------------------------------------|
B|-------8-10--------10-8------------------------5--6-6/8--(6)5-------------|
G|--7/9-------------------9\7---5-(5)-----(5)7-------------------7--5-5-7---|
D|-----------------------------------7---------------------------------------|
A|---------------------------------------------------------------------------|
E|---------------------------------------------------------------------------|


e|---------------------------------------------------------------------------|
B|------------------------------------------8---8---8---8-----13--13-13------|
G|------------------------5-7-5---5--7--7/9---9---9---9---9/14--14-----------|
D|--7-5---------------5-7-------7--------------------------------------------|
A|-------7/5--3--------------------------------------------------------------|
E|---------------5/7---------------------------------------------------------|



e|------15-13-------------------------------15------------8-8----------------|
B|---13-------15b-13-----1315--------13-15bb15---------------10-8-10-8-----|
G|-14-----------------14----------/14----------------------------------------|
D|---------------------------------------------------------------------------|
A|---------------------------------------------------------------------------|
E|---------------------------------------------------------------------------|



e|---------------------------------------------------------------------------|
B|-----------------------------8---------------10b-(10)8---------------------|
G|-9\7-----------5-7-5---57/9---9\7-5---5-5-------------9\7----------5-7-5--|
D|-----7-----5-7-------7---------------7----------------------------5-------7|
A|-------7---------------------------------------------------7--5-7----------|
E|---------------------------------------------------------------------------|

    Outro:

e|---------------------------------------------------------------------------|
B|--------5--7--7/9------(7)9-9-7---5------5-----------------5-7-9-10-9------|
G|---6-7-------------------------------4/6---6\4------4-6-7------------------|
D|---------------------------------------------------------------------------|
A|---------------------------------------------------------------------------|
E|---------------------------------------------------------------------------|
e|---------9-9-7-------------------------------------------------------------|
B|-------7-------9-7----5-------5-7------------2-2-------------6--4-6-4--2---|
G|---7-9-------------/6------/6-----6\(4)-2----2-2-4-4/6-4-----6--4-6-4--2---|
D|-------------------------------------------(2)---------------6--4-6-4--2---|
A|---------------------------------------------------------------------------|
E|---------------------------------------------------------------------------|



e|----------5b---------------------7b--5-7-5---5-----------------------------|
B|------7-7-----7-----6--4--2----------------7----7-5-----------5------------|
G|----------------4---6-4-2-------------------------6-4---4/6---6\4-4-2---2|
D|--2-4-------------------------------------------------------------------4--|
A|---------------------------------------------------------------------------|
E|------------------------------------------------------------------(0)------|



e|---------------------------------------------------------------------------|
B|-3--2----------------------------------------------------------------------|
G|------4------------------------------------------7-4-----------------------|
D|---------4-2--2------------6-7-7/9--7-6--------------7-5(7)-5b------------|
A|-------------4-----------/7--------------7-----------------------7-(7)-----|
E|------------------0--------------------------------------------------------|



e|---------------------------------------------------------------------------|
B|--5-0---5-----------------------5---------5-----3-------2------------------|
G|------7---------------------6-7----6--------------------1------------------|
D|-----------7----------------------------/6----/4------/-2------------------|
A|---------------------------------------------------------------------------|
E|---------------------------------------------------------------------------|
Related for Reptile tab