Guitaretab - guitar tabs
Song name
# A B C D E F G H I J K L M N O P Q R S T U V W X Y Z

Eric Clapton - Five Long Years tab

Song: Five Long Years
Artist: Eric Clapton
Album: From the Cradle

Intro (0:00-0:45)

e|-------------------------------------------------------------------|
B|-------------------------------------------------------------------|
G|----7-11-7----------14~-14-12--------------------------------------|
D|--9--------7~-----------------14-12----------12--------------------|
A|------------------------------------15-12-15-----------------------|
E|-------------------------------------------------------------------|
                                                                                
e|-------------------------------------------------------------------|
B|-------------------------------------------------------------------|
G|-----12-12h14p12----1210h12p10----10------------------------------|
D|--15-------------14-------------12---------------------------------|
A|---------------------------------------(10-12)-trem----------------|
E|-------------------------------------------------------------------|

e|-------------------------------------------------------------------|
B|-------------------------------------------------------------------|
G|--14~-17-9-21-21-21-21p19p1821p19p1821p19p18-19-21---------------|
D|-------------------------------------------------------------------|
A|-------------------------------------------------------------------|
E|-------------------------------------------------------------------|

e|-------------------------------------------------------------------|
B|-------------------------------------------------------------------|
G|--18h19h21-19-18h19h21-19-18h19h21-19-21-21-19-18-19---------------|
D|-----------------------------------------------------19-17-19------|
A|-------------------------------------------------------------------|
E|-------------------------------------------------------------------|
[ Tab from: http://www.guitaretab.com/e/eric-clapton/143927.html ]
e|-------------------------------------------------------------------|
B|-------------------------------------------------------------------|
G|-------------------------------------------------------------------|
D|--19-17-19-----------------------------19----------19--------------|
A|-----------15-17-(15-17)-trem-------------17h19h17----17/15--------|
E|------------------------------17-----------------------------------|

e|-------------------------------------------------------------------|
B|-------------------------------------------------------------------|
G|--------------------17b18-------17b18-------17b18----------15------|
D|-----------15-16-17-------17-15-------17-15-------17-15-17---------|
A|--15-17-18---------------------------------------------------------|
E|-------------------------------------------------------------------|

e|-------------------------------------------------------------------|
B|-------------------------------------------------------------------|
G|-----------------------------17b18-17-15h17p15---------------------|
D|--17-15----------------------------------------17-15h17p15-20------|
A|--------17-15-13h15p13---------------------------------------------|
E|-----------------------15------------------------------------------|

e|-------------------------------------------------------------------|
B|-------------------------------------------------------------------|
G|-------------------------------------------------------------------|
D|--------------------17-15-14---------------------------------------|
A|--15-17-19-17-15-16----------17-15-14------------------------------|
E|--------------------------------------17-15-17---------------------|





e|-------------------------------------------------------------------|
B|-------------------------------------------------------------------|
G|-------------------------------------------------------------------|
D|--17-14-13-14--14-12-----------------------------------------------|
A|---------------------15-12-----------------------------------------|
E|-------------------------------------------------------------------|
Related for Five Long Years tab