Song name
# A B C D E F G H I J K L M N O P Q R S T U V W X Y Z

Eric Clapton - Further On Up The Road tab

e|-------------3--3----------------------------------------------------------|
B|--------3-5--3-----5----3---5----------------------------------------------|
G|--2/4--------------5----3---5------5br-3h4---------3^1/4th-----------------|
D|---------------------5----5---5------------55-3-5--------------------------|
A|---------------------------------------------------------------------------|
E|---------------------------------------------------------------------------|

e|---------------------------------------------------------------------------|
B|--------------------------3---------6-3---3--------------------------------|
G|----5---3------------5br3---5-3---------5----3b-5-3-5----------------------|
D|----5--------------------------------------------------3-------------------|
A|----------5----------------------------------------------------------------|
E|---------------------------------------------------------------------------|
                    This part isn't right, but I play it and it works   
e|----3-----6----------------------------------------------------------------|
B|--3----3-----6/8------8--6--3----------------------------------------------|
G|-------------------------------5--3----------------------------------------|
D|-------------------------------------5-------------------------------------|
A|---------------------------------------------------------------------------|
E|---------------------------------------------------------------------------|

e|-------------------------------------------------------------------------|
B|----------------------------------------------8-----10br---8---8-10--------|
G|-------------------------------7-7---7--7---9---9------------9---------|
D|--------5-5----5---5---5---7/9-----9---9--9------------------------------|
A|---5/7-------7---7---7---------------------------------------------------|
E|-------------------------------------------------------------------------|

That's where it gets to fast for me.
No one else has tabbed this. It's a start
Tap to rate this tab
# A B C D E F G H I J K L M N O P Q R S T U V W X Y Z