Song name
# A B C D E F G H I J K L M N O P Q R S T U V W X Y Z

Eric Clapton - Had To Cry tab

#----------------------------------PLEASE NOTE--------------------------------#
#This file is the author's own work and represents their interpretation of the#
#song. You may only use this file for private study, scholarship, or research.#
#-----------------------------------------------------------------------------#
#-----------------------------------------------------------------------------#
#   If you like this tab, please rate it above.  Thank you.
#-----------------------------------------------------------------------------#

Tabbed by John Shaw (jashaw@shaw-web.net)
Album: "Blind Faith", released 1969 on Island Records.
Words and Music: Steve Winwood.
Recorded by Steve Winwood, Eric Clapton, Blind Faith,......

|----------------------------------1-3-1-|----------------------------------1-3-1-|
|----------------------------------3-5-3-|----------------------------------3-5-3-|
|-------3--------------------------3-5-3-|-------3--------------------------3-5-3-|
|-3h5-5---5p3---------0------------3-5-3-|-3h5-5---5p3---------0------------3-5-3-|
|------------5----1p3---3p1---1----1-3-1-|------------5----1p3---3p1---1----1-3-1-|
|---------------------------3---1--1-3-1-|---------------------------3---1--1-3-1-|
(Repeat from here 2nd verse)
|----------------------------------1-3-1-|----------------------------------1-3-1-|
|----------------------------------3-5-3-|----------------------------------3-5-3-|
|-------3--------------------------3-5-3-|-------3--------------------------3-5-3-|
|-3h5-5---5p3---------0------------3-5-3-|-3h5-5---5p3---------0------------3-5-3-|
|------------5----1p3---3p1---1----1-3-1-|------------5----1p3---3p1---1----1-3-1-|
|---------------------------3---1--1-3-1-|---------------------------3---1--1-3-1-|
  C7
|-3--------------------------------------|----------------------------------1-3-1-|
|-5--------------------------------------|----------------------------------3-5-3-|
|-3--------------------------------------|-------3--------------------------3-5-3-|
|-5--------------------------------------|-3h5-5---5p3---------0------------3-5-3-|
|-3--------------------------------------|------------5----1p3---3p1---1----1-3-1-|
|-3--------------------------------------|---------------------------3---1--1-3-1-|
(1)It's already written that today will be one to remember
(2)I'm taking the chance to see the wind in your eyes while I listen

  C7
|-3--------------------------------------|----------------------------------1-2---|
|-5--------------------------------------|----------------------------------3-4---|
|-3--------------------------------------|-------3--------------------------3-4---|
|-5--------------------------------------|-3h5-5---5p3---------0------------3-4---|
|-3--------------------------------------|------------5----1p3---3p1---1----1-2---|
|-3--------------------------------------|---------------------------3---1--1-2---|
(1)The feeling's the same as being outside of the law
(2)You say you can't reach me but you want every thing to be free

 E7     F#7    Am6    C#m   CCC A
|-7------0—-----0—-----4----333-5------------------------|
|-9------9------9—-----5----555-5------------------------|
|-7------9------9—-----6----555-6------------------------|
|-9------8------7—-----6----555-7------------------------|
|-7------9------8—-----5----333-7------------------------|
|------------------------------—5-------—----------------|
         Had to cry    today

 E7     F#7    Am6                         C#m              C               Bb
|-7------0—-----0—--------------------------4---------------3---------------1-|
|-9------9------9—--------------------------5---------------5---------------3-|
|-7------9------9—--------------------------6---------------5---------------3-|
|-9------8------7—--------------------------6---------------5---------------3-|
|-7------9------8—--------------------------5---------------3---------------1-|
|---------------------------------------—-------------------------------------|
Well, I saw your face and I missed you there

(Lead)
|----------------------------------1-3-1-|----------------------------------1-3-1-|
|----------------------------------3-5-3-|----------------------------------3-5-3-|
|-------3--------------------------3-5-3-|-------3--------------------------3-5-3-|
|-3h5-5---5p3---------0------------3-5-3-|-3h5-5---5p3---------0------------3-5-3-|
|------------5----1p3---3p1---1----1-3-1-|------------5----1p3---3p1---1----1-3-1-|
|---------------------------3---1--1-3-1-|---------------------------3---1--1-3-1-|

(Repeat 2nd Verse) 

Had to cry today ...
(Open Jam………………………………………)(Bass plays same)
|----------------------------------1-3-1-|----------------------------------1-3-1-|
|----------------------------------3-5-3-|----------------------------------3-5-3-|
|-------3--------------------------3-5-3-|-------3--------------------------3-5-3-|
|-3h5-5---5p3---------0------------3-5-3-|-3h5-5---5p3---------0------------3-5-3-|
|------------5----1p3---3p1---1----1-3-1-|------------5----1p3---3p1---1----1-3-1-|
|---------------------------3---1--1-3-1-|---------------------------3---1--1-3-1-|

(Last time)
|----------------------------------1-3-1-|----------------------------------1-2---|
|----------------------------------3-5-3-|----------------------------------3-4---|
|-------3--------------------------3-5-3-|-------3--------------------------3-4---|
|-3h5-5---5p3---------0------------3-5-3-|-3h5-5---5p3---------0------------3-4---|
|------------5----1p3---3p1---1----1-3-1-|------------5----1p3---3p1---1----1-2---|
|---------------------------3---1--1-3-1-|---------------------------3---1--1-2---|

Tap to rate this tab
 
# A B C D E F G H I J K L M N O P Q R S T U V W X Y Z