Guitaretab - guitar tabs
Song name
# A B C D E F G H I J K L M N O P Q R S T U V W X Y Z

Eric Clapton - Got To Get Better In A Little While Live tab

  w/wah
e|-----------------------|----------------------------------|  repeat these
B|-----------------------|----------------------------------|  bars a few times
G|-----------------------|------------------------xx-x------|
D|-----------------------|------------------------xx-x------|
A|0h2(let ring)0h2---0h2-|--5-xx-x-5--7-7^~~~---5-xx-x-5-7--|
E|---0------------0-----0|0---xx-x-----------0----xx-x----3^|

[ Tab from: http://www.guitaretab.com/e/eric-clapton/186403.html ]
|-------------------------------14p12-------9---------7-7-7---|
|------------2----3/5-----------14p12-------9---------7-7-7---|
|----0h1-----2----4/7--/9-----------------------------7-7-7---|
|----2-------2---------/9-----------------------------6-6-6---|
|----------------------/7-----------------------------7-7-7---|
|--0--------------------------0-------------------0-----------|

listen to the track and you will get the feeling
Related for Got To Get Better In A Little While Live tab
×
Best way to learn
"Got To Get Better In A Little While Live"