Song name
# A B C D E F G H I J K L M N O P Q R S T U V W X Y Z

Eric Clapton - Them Changes tab

Artist: Eric Clapton and Steve Winwood
Album: Live from Madison Square Garden
Composer: Buddy Miles

The Clapton/Winwood Version of the song is almost the same as the original
by Buddy Miles, although the guitar is more dominant here and of course
Clapton plays a guitar solo here (I won't tab it out, because I don't see
any sense in copying a guitar solo, and of course it's not that easy,
especially as Clapton is in this show way better than for example Hard Rock
Calling or CGF2007).

The Intro Part (sometimes repeated during the song, listen to it to hear where) goes 
this:

e---------------------------------------------------|
B---------------------------------------------------|
G---------------------------------------------------|
D-------5-------------------------------------------|
A---7-7-----7-5-------------------------------------|
E---------------8--5--5-----8-8--10--8--5--3--0--0--|


The Main Part which is repeated all the time (during Claptons Solo Winwood plays a 
version) is quite easy:

E----7----7-7--x------------------------------------------|
B----9----9-9--x------------------------------------------|
G----7----7-7--x------------------------------------------|
D----9----9-9--x------------------------------------------|
A----7----7-7--x-------7h9--7-----------------------------|
E------------------7h9------------------------------------|


Clapton sometimes varies the ending, but nothing great, perhaps adding one or two notes.

If you find any errors please comment and I'll change them.
Tap to rate this tab
# A B C D E F G H I J K L M N O P Q R S T U V W X Y Z