Song name
# A B C D E F G H I J K L M N O P Q R S T U V W X Y Z

Eric Clapton - Little Wing Live tab

Help us improve GuitareTab! Take a short survey!
LITTLE WING

As performed live by eric clapton and steve winwood at
madison square gardens 28/2/08

This is only the introduction. still working the rest out

If anyone as more or better please e-mail me at ak210389@hotmail.com

Standard tuning

Enjoy

------------------------------------------------------|
------------------------------------------------------|
-----------2-------------2----2-----------------------|
-----------2h4-----(4)---2h4--2-------2---------------|
-------2--------------------------/4------------------|
---2/4----------------------------------2-------------|


------------------------------------------------------|
-------------5------------3----2h3p2------------------|
------2--4/6---6/4p2h4-----4---------4-2--2-----------|
--2-4-------------------------------------2h4---------|
-----------------------------------------------2/4----|
---------------------------------------------------2--|

--------4-------2-----------------------|
----2-----2-------2---------------------|
------------2-------2----2h4p2----------|
--4----------------------------4--6-6---|
----------------------------------4-4---|
----------------------------------------|

---------------------------------------------0---------|
-----------------------------------------3------3------|
----6---------5---------4---------4----4---4------4----|
--6---6---------5---------4-----4-------------------4--|
--------4---3-----3---2-----2--------------------------|
-------------------------------------------------------|

-------------------------------------------------------|
-------------------------------------------------------|
-----------------------4----7-7---9--9--9---11---7--9--|
------2----------------5----7-7---9--9--9---11---7--9--|
--0---0--------5----5--5----5-5---7--7--7---9----5--7--|
------------3--3----3--3-------------------------------|

-----------------------------|
---14b--14--12--11-----------|
--------------------13-------|
-----------------------------|
-----------------------------|
-----------------------------|
Related for Little Wing Live tab