Song name
# A B C D E F G H I J K L M N O P Q R S T U V W X Y Z

Eric Clapton - Forty Four tab

                               Forty Four
                       Covered by: Eric Clapton


This is the tab to the intro of the song, but the riffs stay the same throughout 
the song so just repeat them. You may also want to listen to the song because the 
tab may not be perfectly timed.

Standard Tuning, Blues in E.
|-------------------------------------------------------------------------|
|-------------------------------------------------------------------------|
|-------------------------------------------------------------------------|
|------------------------------2------------------------------------------|
|---------------2-------2h4-----------2h4-2---------2---------------------|
|----0-------4--------------------------------2h4-------------------------|x2

|-------------------------------------------------------------------------|
|-------------------------------------------------------------------------|
|------------------------------2------------------------------------------|
|---------------2-------2h4-----------2h4-2--------2----------------------|
|----0-------4--------------------------------2h4-------------------------|
|-------------------------------------------------------------------------|

|-------------------------------------------------------------------------|
|-------------------------------------------------------------------------|
|-------------------------------------------------------------------------|
|--------------2h4-2------------------------------------------------------|
|----------2h4----------------2h4-----------------------------------------|
|----0----------------0-----------2h4h2h4--0------------------------------|x2

|----------------------------------------3--0h3p0-0-----------------------|
|---5-5-3-5--------------------------------------3-0-3-/4-2-0-------------|
|---4-4------/4--4--4--4---4-s2-0----------------------------2------------|
|---------------------------------2---------------------------------------|
|-------------------------------------------------------------------------|
|-------------------------------------------------------------------------|
Tap to rate this tab
# A B C D E F G H I J K L M N O P Q R S T U V W X Y Z