Song name
# A B C D E F G H I J K L M N O P Q R S T U V W X Y Z

Eric Clapton - Layla Live tab

alright, here's my take on the main solo to Layla by Eric Clapton, that was played
his live performance at the Madison Square Garden concert in 1999 (my personal favorite
of this song http://www.youtube.com/watch?v=fX5USg8_1gA).  There are some mistakes but 
in all this is the best I've come up with so far:

B=full bend
b=half bend
h=hammer-on
p=pull-off

E-----------------|12--13--12~~~~--|10--------------|15B----(15)p13--|
B-13B-13B---------|----------------|----13--10~~~~--|----------------|
G-----------------|----------------|----------------|----------------|
D-----------------|----------------|----------------|----------------|
A-----------------|----------------|----------------|----------------|
E-----------------|----------------|----------------|----------------|

E-----------------|--------------11|15B15B~~~(15)p13|~~~~13h15-5B-13-|
B-15~~~~-13-h15-15|~~~~~~--13h15---|----------------|----------------|
G-----------------|----------------|----------------|----------------|
D-----------------|----------------|----------------|----------------|
A-----------------|----------------|----------------|----------------|
E-----------------|----------------|----------------|----------------|

E-15p13---13------|13h15-15B15B-(15)p13---|15B-(15)p13----15B--(15)-p13---|
B-------15--15~~~~|-------------------15~~|----------15~~-------------15~~|
G-----------------|-----------------------|-------------------------------|
D-----------------|-----------------------|-------------------------------|
A-----------------|-----------------------|-------------------------------|
E-----------------|-----------------------|-------------------------------|

E-----13-15-17-18B|--(18)15-------|--------------|-----15h18p15--15-----------|
B-15--------------|--------1818B15|~~~~--18B-----|15h18--------18--18p15--15~~|
G-----------------|---------------|----17--------|----------------------17----|
D-----------------|---------------|--------------|----------------------------|
A-----------------|---------------|--------------|----------------------------|
E-----------------|---------------|--------------|----------------------------|

E-------------------|--------------------------------------------------|
B---18B--(18)15-15~~|15--15--15--15--15--15--15--15--15--15--15--15----|
G-17----------------|--17B-17B-17B-17B-17B-17B-17B-17B-17B-17B-17B-17--|B
D-------------------|--------------------------------------------------|
A-------------------|--------------------------------------------------|
E-------------------|--------------------------------------------------|

E-------------------|---------------------|----------------|------------------|
B-15-18B--(18)15-15~|18-20B--20B(20)15-15\|/15-15-15~~~~---|13p10--10---------|
G-------------------|---------------------|----------------|-----12-12p10-----|
D-------------------|---------------------|----------------|-------------10h12|
A-------------------|---------------------|----------------|------------------|
E-------------------|---------------------|----------------|------------------|

E-------------------|----10-13B--10---|-13B--(13)-p10------------|
B-------------------|10h13----------13|---------------12p10-10---|
G----------10--12p10|-----------------|-------------------12-12B~|
D-12~~12p10--10-----|-----------------|--------------------------|
A-------------------|-----------------|--------------------------|
E-------------------|-----------------|--------------------------|

E-----13h1515B(15)p13-131515B~~(15)p1315~~|13-12-10---------|
B-13h15-------------15--------------------|--------13-10\8--|
G-----------------------------------------|---------------10|
D-----------------------------------------|-----------------|
A-----------------------------------------|-----------------|
E-----------------------------------------|-----------------|

E-------------------------------|--------------------------|
B-8/10108/10108/10108/10108/1010|10~-----------------------|
G-7/-9-97/-9-97/-9-97/-9-97/-9-9|---12p10------------------|
D-------------------------------|-------12~12p10h12-10-12~~|
A-------------------------------|--------------------------|
E-------------------------------|--------------------------|
Tap to rate this tab
# A B C D E F G H I J K L M N O P Q R S T U V W X Y Z