Song name
# A B C D E F G H I J K L M N O P Q R S T U V W X Y Z

Eric Clapton - Wonderful Tonight Acoustic tab

--------------------------------
Wonderful Tonight - Eric Clapton
--------------------------------

This is the Tab for Wonderful Tonight, minus the guitar riffs and solo.
I have just tabbed the melody, and finger-picking of the chords during the verses.


Melody: Verse 1

e|--------------------------------------------------------------------------|
B|----------0----1--0------3----------1-----1---0---0-----------------------|
G|----------------------2--------0---------------------------2--2-----------|
D|-----0--------------------------------------------------------------------|
A|--------------------------------------------------------------------------|
E|--------------------------------------------------------------------------|
       It’s late in the evening, she’s wond’rin what clothes to wear.

e|--------------------------------------------------------------------------|
B|---------0----1--0--------3-------0--1----0---0---------------------------|
G|---------------------2--------0---------------------2------2--------------|
D|-----0--------------------------------------------------------------------|
A|--------------------------------------------------------------------------|
E|--------------------------------------------------------------------------|
       She puts on her make-up, and brushes her long, blonde hair.

e|-----0---0----0-----------------------------------------------------------|
B|------------------3---------0--0-0----3-----------------------------------|
G|-----------------------2----------------0---------------------------------|
D|--------------------------------------------------------------------------|
A|--------------------------------------------------------------------------|
E|--------------------------------------------------------------------------|
       And then she asks me, “Do I look alright?” 

e|--------------------------------------------------------------------------|
B|-----------0----1----1---0------------------------------------------------|
G|-----0---2--------------------2--2--0------0------------------------------|
D|----------------------------------------0---------------------------------|
A|--------------------------------------------------------------------------|
E|--------------------------------------------------------------------------|
       And I say “Yes, you look wonderful to-night.”


[Repeat melody for Verse 2:]

We go to a party, and everyone turns to see
This beautiful lady, who’s walking around with me
And then she asks me, “Do you feel alright?”
And I say, “Yes, I feel wonderful tonight.”


Middle Section:

       C           D               G                  Em
I feel wonderful because I see the love light in your eyes
        C            D               C             D
And the wonder of it all is that you just don’t realise
           G
How much I love you.


[Repeat melody for Verse 3:]

It’s time to go home now, and I’ve got an achin’ head
So I give her the car keys and she helps me to bed
And then I tell her, as I turn out the light
I say, “My darling, you were wonderful tonight.”

-----------------------------------------------------------------------------

Accompaniment: (Play During Verses)

  (G)                      (D)                      (C)
e|-------------3----------|-------------2----------|-------------0----------|
B|-------0--------0-----0-|-------3--------3-----3-|-------1--------1-----1-|
G|----0-----0--------0----|----2-----2--------2----|----0-----0--------0----|
D|------------------------|-0----------------------|------------------------|
A|------------------------|------------------------|-3----------------------|
E|-3----------------------|------------------------|------------------------|

  (D)                      (G)                      (D)
e|-------------2----------|-------------3----------|-------------2----------|
B|-------3--------3-----3-|-------0--------0-----0-|-------3--------3-----3-|
G|----2-----2--------2----|----0-----0--------0----|----2-----2--------2----|
D|-0----------------------|------------------------|-0----------------------|
A|------------------------|------------------------|------------------------|
E|------------------------|-3----------------------|------------------------|

  (C)                      (D)                      (C)
e|-------------0----------|-------------2----------|-------------0----------|
B|-------1--------1-----1-|-------3--------3-----3-|-------1--------1-----1-|
G|----0-----0--------0----|----2-----2--------2----|----0-----0--------0----|
D|------------------------|-0----------------------|------------------------|
A|-3----------------------|------------------------|-3----------------------|
E|------------------------|------------------------|------------------------|

  (D)                      (G)                      (Em)
e|-------------2----------|-------------3----------|-------------0----------|
B|-------3--------3-----3-|-------0--------0-----0-|-------0--------0-----0-|
G|----2-----2--------2----|----0-----0--------0----|----0-----0--------0----|
D|-0----------------------|------------------------|------------------------|
A|------------------------|------------------------|------------------------|
E|------------------------|-3----------------------|-0----------------------|

  (C)                      (D)                      (G)
e|-------------0----------|-------------2----------|-------------3----------|
B|-------1--------1-----1-|-------3--------3-----3-|-------0--------0-----0-|
G|----0-----0--------0----|----2-----2--------2----|----0-----0--------0----|
D|------------------------|-0----------------------|------------------------|
A|-3----------------------|------------------------|------------------------|
E|------------------------|------------------------|-3----------------------|

  (D)                      (C)                      (D)
e|-------------2----------|-------------0----------|-------------2----------|
B|-------3--------3-----3-|-------1--------1-----1-|-------3--------3-----3-|
G|----2-----2--------2----|----0-----0--------0----|----2-----2--------2----|
D|-0----------------------|------------------------|-0----------------------|
A|------------------------|-3----------------------|------------------------|
E|------------------------|------------------------|------------------------|
Tap to rate this tab
 
# A B C D E F G H I J K L M N O P Q R S T U V W X Y Z