Eric Clapton - Layla Acoustic tab

-------------------------------------------------------------------------------
Layla (Unplugged Acoustic) Solos  Eric Clapton
-------------------------------------------------------------------------------
Tabbed by: Taka John S

i tabbed this by listening the song so
i suggest you play this not only by reading 
this tab also listening the song by all mean.
cheers,


Tuning: standard

Intro Solo (0:16)

e|-------------------------------------------------------------------10--12--|
B|----------5-6-6p5---5-6-6p5---5-6--6/8--6-8-8/10--8--10/13--10-13----------|
G|------7------------7-------7-----------------------------------------------|
D|----7----------------------------------------------------------------------|
A|---------------------------------------------------------------------------|
E|---------------------------------------------------------------------------|

e|----12p10----10------------------------------------------------------------|
B|----------13----13-------10----10------10-9-10-9--------5-6-5--------------|
G|----------------------------12----12-------------12---7-------7----5--7----|
D|----------------------------------------------------7----------------------|
A|---------------------------------------------------------------------------|
E|---------------------------------------------------------------------------|

e|---------------------------------------------------------------------------|
B|---------------------------------------------------------------------------|
G|---0-------0---------------------------------------------------------------|
D|-----3--0-----3--0---0-----------------------------------------------------|
A|-------------------3---0--3------------------------------------------------|
E|---------------------------------------------------------------------------|


Solo at 2:56

e|----5-5---5--5-5---5----------------------7/8--8--8--7/8--8--8--7/8--8--8--|
B|----6-6---6--6-6---6----------------------9/10-10-10-9/10-10-10-9/10-10-10-|
G|--------7--------7----7-5--------------------------------------------------|
D|-------------------------7-6-5\3-5hp3---3----------------------------------|
A|--------------------------------------5------------------------------------|
E|---------------------------------------------------------------------------|

e|----7/8--8--8--7/8--8--8--7/8--8--8--7/8--8-10------------------8-10-12h10-|
B|----9/10-10-10-9/10-10-10-9/10-10-10-9/10------10--8\6---6-8/10------------|
G|-------------------------------------------------------5-------------------|
D|---------------------------------------------------------------------------|
A|---------------------------------------------------------------------------|
E|---------------------------------------------------------------------------|

e|-----10------------------------------------------1-0-1-1p------------------|
B|--13---13-10--10-10-10--11-10--8-6--5--3-5-3-3------------3-1--------------|
G|-----------------------------------------------2--------------2-0---0-2----|
D|------------------------------------------------------------------3----3-0-|
A|---------------------------------------------------------------------------|
E|---------------------------------------------------------------------------|

e|-----13--10-----10-10-12h12p10---------------------------12-10----10--/15--|
B|--10---------13----------------13--10----10--------10-----------13---------|
G|--------------------------------------12----12-10-----12-------------------|
D|---------------------------------------------------------------------------|
A|---------------------------------------------------------------------------|
E|---------------------------------------------------------------------------|

e|--15-15-13----10-12-13/15--13-15--12-13-10---------------------------------|
B|--------------------------------------------13-10-----------13-10----------|
G|--------------------------------------------------12-10-----------12-10----|
D|--------------------------------------------------------12--------------12-|
A|---------------------------------------------------------------------------|
E|---------------------------------------------------------------------------|

e|---------------------------------------------------------------------------|
B|---------------------------------------------------------------------------|
G|----10-9--9-7-9--9-10-7----------------------------------------------------|
D|------------------------10-7-----------------------------------------------|
A|-----------------------------10-8------8-----------------------------------|
E|-----------------------------------10--------------------------------------|


| /  slide up
| \  slide down
| h  hammer-on
| p  pull-off
| ~  vibrato
| +  harmonic
| x  Mute note
===============================================================================
Tap to rate this tab
 
# A B C D E F G H I J K L M N O P Q R S T U V W X Y Z