Song name
# A B C D E F G H I J K L M N O P Q R S T U V W X Y Z

Eric Clapton - Autumn Leaves tab

Autumn Leaves - Eric Clapton - Clapton (2010)

Solo 1 (1:37)
e|--------------------------------|-----------------------------------------------|
B|--------------------------------|-----------------------------------------------|
G|---------12~-----------11-11~---|----------9~-----------------------------------|
D|-9-11-12----------9-11----------|--------9------------8-12~---11h12p11--9---8-9-|
A|---------------12---------------|-/10-12--------/9-11---------------------------|
E|--------------------------------|-----------------------------------------------|

e|--------------------------------|---------------------------------|
B|--------------------------------|---10-10-------------------------|
G|------------12~----11h12p11-9---|---------11h12-11-11----9--------|
D|-/9-11-9-11---------------------|-9------------------------12p11--|
A|--------------------------------|---------------------------------|
E|--------------------------------|---------------------------------|

e|---------------------------------|--------------------------------------|
B|---------------------------------|--------------------------------------|
G|------------9----9h10p9----------|----9h10p9----9-----------------------|
D|-------9-11-------------12-11----|-12--------12---12-9------------------|
A|-10h12---------------------------|------------------------12-9----------|
E|---------------------------------|-----------------------------12-10-7~-|

This is my first tab, and it's just the first solo.
I'll try to do the whole solo parts but this is it for now.
It sounds good to me, but I'd like to receive corrections
or other versions.
Tap to rate this tab
 
# A B C D E F G H I J K L M N O P Q R S T U V W X Y Z