Song name
# A B C D E F G H I J K L M N O P Q R S T U V W X Y Z

Eric Clapton - Tears In Heaven Acoustic tab

Tears in Heaven - Eric Clapton (Unplugged)
tabber - shonofear

Intro
 Gtr 2
-|--------------------------|---------------|
-|---------2h3p2----5---5-2-|---2---2---2---|
-|-------2-------2--4---4-2-|---2---2---2---|
-|--------------------------|---------------|
-|-----0--------------------|---------------|
-|-0h2--------------4-4---2-|-2---2-0-0---0-|

 Gtr 1
-|--------------|---------------|
-|-3---3---3--3-|-----2-------2-|
-|-2---2---2--2-|---2---2---2---|
-|--------------|---------------|
-|--------------|-0-------0-----|
-|-2-2---2-0--0-|---------------|

 Gtr 2
-|--------------|---------------|
-|-3---3---3--3-|-2---2---2---2-|
-|-2---2---2--1-|-2---2---2---2-|
-|--------------|---------------|
-|--------------|-0-0---0---0---|
-|-2-2---2-0--0-|---------------|

Verse 1 - 00:12
 Gtr 1
-|----------------------------|--5/7-5----------0-|
-|-----------2h3p2----5---5-2-|--5/7---5/7-5--2---|
-|---------2-------2--4---4-2-|-------------------|
-|----------------------------|-------------------|
-|-------0--------------------|-------------------|
-|-0h2----------------4-4---2-|-------------------|

 Gtr 2
-|--------------------------|---------------|
-|---------2h3p2----5---5-2-|---2---2---2---|
-|-------2-------2--4---4-2-|---2---2---2---|
-|--------------------------|---------------|
-|-----0--------------------|---------------|
-|-0h2--------------4-4---2-|-2---2-0-0---0-|

 Gtr 1
-|-----0--------0--|--------------------|
-|-3-------2h3-----|-------0----2-----3-|
-|-----------------|-1-----1----2-----4-|
-|-----------------|--------------------|
-|-----------------|----------2---3/5---|
-|-----------------|----0---------------|

 Gtr 2
-|-----------------|--------------------|
-|-3---3---2---2---|--0----0----2-----3-|
-|-2---2---2---2---|--1----1----2-----4-|
-|-----------------|--------------------|
-|-----------------|--------------------|
-|-2-2---2-0-0---0-|----0-----0----0----|

Verse 2 - 00:24
 Gtr 1
-|----------------------|--2-4-4/5-4-2-0-|
-|-2---2h3p2----5---5-2-|----------------|
-|---2-------2--4---4-2-|----------------|
-|----------------------|----------------|
-|----------------------|----------------|
-|--------------4-4---2-|----------------|

 Gtr 2
-|----------------------|---------------|
-|-2---2h3p2----5---5-2-|---2---2---2---|
-|---2-------2--4---4-2-|---2---2---2---|
-|----------------------|---------------|
-|----------------------|---------------|
-|--------------4-4---2-|-2---2-0-0---0-|

 Gtr 1
-|---------------0-|--------------------|
-|-3---3---2h3-----|-------0----2-----3-|
-|-----------------|-1-----1----2-----4-|
-|-----------------|--------------------|
-|-----------------|----------2---3/5---|
-|-----------------|----0---------------|

 Gtr 2
-|-----------------|--------------------|
-|-3---3---2---2---|--0----0----2-----3-|
-|-2---2---2---2---|--1----1----2-----4-|
-|-----------------|--------------------|
-|-----------------|--------------------|
-|-2-2---2-0-0---0-|----0-----0----0----|

Bridge 1 - 00:36
 Gtr 1
-|-----2-r--2-r---------1-------1--------0--------0-|
-|-2-2--------------2-2---2-r-2---2--2-2---2-r--2---|
-|-2----------------1----------------0--------------|
-|--------------------------------------------------|
-|--------------------------------------------------|
-|-2----------------1----------------0--------------|

 Gtr 2
-|--------------------------------------------------|
-|------------------2---2-2-2---2----2-2-2---2----2-|
-|--------------------------------------------------|
-|--------------------------------------------------|
-|--------------------------------------------------|
-|-2-2---2-2-2---2--1-1---1-1-1---1--0-0---0-0-0--0-|


 Gtr 1
-|---------------|-----------------------------|
-|---------------|-----3-------3-------3-3---3-|
-|-3---3---4---6-|---2---2---2---2-----2-2---2-|
-|---------------|-----------------------------|
-|---------------|-2-------2-------------------|
-|-2-2---2---2---|-------------------------0---|

 Gtr 2
-|---------------|-----------------------------|
-|---------------|----3-------3--------3-3---3-|
-|---------------|----2-------2--------2-2---2-|
-|-44--2---2---2-|-----------------------------|
-|-**------------|-22----2222------------------|
-|-------2---2---|------------------0------0---|

Verse 3 - 00:54
 Gtr 1
-|--------------------------|--5/7-5----------0-|
-|---------2h3p2----5---5-2-|--5/7---5/7-5--2---|
-|---------------2--4---4-2-|-------------------|
-|--------------------------|-------------------|
-|-----0--------------------|-------------------|
-|------------------4-4---2-|-------------------|

 Gtr 2
-|--------------------------|---------------|
-|---------2h3p2----5---5-2-|---2---2---2---|
-|-------2-------2--4---4-2-|---2---2---2---|
-|--------------------------|---------------|
-|--------------------------|---------------|
-|------------------4-4---2-|-2---2-0-0---0-|

 Gtr 1
-|--------------|---------------------------|
-|-3---3---3--3-|-2-----------2h3p2---------|
-|-2---2---2--2-|-2-------2h4-------4p2-----|
-|--------------|-----2h4---------------4p2-|
-|--------------|-0-------------------------|
-|-2-2---2-0--0-|---------------------------|

 Gtr 2
-|--------------|---------------|
-|-3---3---3--3-|-2---2---2---2-|
-|-2---2---2--2-|-2---2---2---2-|
-|--------------|---------------|
-|--------------|-0-0---0---0---|
-|-2-2---2-0--0-|---------------|


Verse 4 - 01:07
 Gtr 1
-|--------------------------|--5/7-5----------0-|
-|---------2h3p2----5---5-2-|--------5/7-5--2---|
-|-------2-------2--4---4-2-|-------------------|
-|--------------------------|-------------------|
-|--------------------------|-------------------|
-|------------------4-4---2-|-------------------|

 Gtr 2
-|--------------------------|---------------|
-|---------2h3p2----5---5-2-|---2---2---2---|
-|-------2-------2--4---4-2-|---2---2---2---|
-|--------------------------|---------------|
-|--------------------------|---------------|
-|------------------4-4---2-|-2---2-0-0---0-|

 Gtr 1
-|-----0---------0-|--------------------|
-|-3-------2h3-----|-------0----2-----3-|
-|-----------------|-1-----1----2-----4-|
-|-----------------|--------------------|
-|-----------------|----------2---3/5---|
-|-----------------|----0---------------|

 Gtr 2
-|-----------------|--------------------|
-|-3---3---2---2---|--0----0----2-----3-|
-|-2---2---2---2---|--1----1----2-----4-|
-|-----------------|--------------------|
-|-----------------|--------------------|
-|-2-2---2-0-0---0-|----0-----0----0----|

Verse 5 - 01:19
 Gtr 1
-|----------------------------|--2-4-4/5-4-2-0-|
-|-------2---2h3p2----5---5-2-|----------------|
-|---------2-------2--4---4-2-|----------------|
-|----------------------------|----------------|
-|----------------------------|----------------|
-|--------------------4-4---2-|----------------|

 Gtr 2
-|----------------------------|--------------|
-|-------2---2h3p2----5---5-2-|--2---2---2---|
-|---------2-------2--4---4-2-|--2---2---2---|
-|----------------------------|--------------|
-|----------------------------|--------------|
-|--------------------4-4---2-|----2-0-0---0-|

 Gtr 1
-|-----0---------0-|---------------------|
-|-3-------2h3-----|-------0----2------3-|
-|-----------------|-1-----1----2------4-|
-|-----------------|---------------------|
-|-----------------|----------2----3/5---|
-|-----------------|----0----------------|

 Gtr 2
-|-----------------|---------------------|
-|-3---3---2---2---|--0----0----2------3-|
-|-2---2---2---2---|--1----1----2------4-|
-|-----------------|---------------------|
-|-----------------|---------------------|
-|-2-2---2-0-0---0-|----0-----0-----0----|


Bridge 2 - 01:31
 Gtr 1
-|-----2-r---2-r--------1-------1--------0-r------0-|
-|-2-2--------------2-2---2-2-2---2--2-2------------|
-|-2----------------1-------1--------0--------------|
-|--------------------------------------------------|
-|--------------------------------------------------|
-|-2----------------1-------1--------0--------------|

 Gtr 2
-|--------------------------------------------------|
-|--------------------------------------------------|
-|--------------------------------------------------|
-|--------------------------------------------------|
-|--------------------------------------------------|
-|-2-2---2-2-2---2--1-1---1-1-1---1--0-0---0-0-0--0-|

 Gtr 1
-|---------------|----------------------------|
-|-----2-------2-|----3--------3------3-3---3-|
-|---3---3---3---|----2-2----2-2------2-2---2-|
-|-4-------4-----|----------------------------|
-|-*-------*-----|-2-------2------------------|
-|---------------|----------------------------|

 Gtr 2
-|---------------|----------------------------|
-|---------------|----3--------3------3-3---3-|
-|---------------|----2-2----2-2------2-2---2-|
-|-44--2---2---2-|----------------------------|
-|-**------------|-2-------2------------------|
-|-------2---2---|------------------------0---|


Verse 6 - 01:49
 Gtr 1
-|--------------------------|--5/7-5----------0-|
-|---------2h3p2----5---5-2-|--------5/7-5--2---|
-|-------2-------2--4---4-2-|-------------------|
-|--------------------------|-------------------|
-|-----0--------------------|-------------------|
-|------------------4-4---2-|-------------------|

 Gtr 2
-|--------------------------|---------------|
-|---------2h3p2----5---5-2-|---2---2---2---|
-|-------2-------2--4---4-2-|---2---2---2---|
-|--------------------------|---------------|
-|--------------------------|---------------|
-|------------------4-4---2-|-2---2-0-0---0-|

 Gtr 1
-|--------------|------------------|
-|-3---3---3--3-|-2----2----2----2-|
-|-2---2---2--1-|--2----2----2-----|
-|--------------|---2----2----2----|
-|--------------|-0----0----0----0-|
-|-2-2---2-0--0-|------------------|

 Gtr 2
-|--------------|---------------|
-|-3---3---3--3-|-2---2---2---2-|
-|-2---2---2--1-|-2---2---2---2-|
-|--------------|---------------|
-|--------------|-0-0---0---0---|
-|-2-2---2-0--0-|---------------|

Break - 02:01
 Both Gtrs
-|---------0------3----------|---------------------------------------|
-|---------1------1------1-1-|-3---3-------3-------3-------3---3---3-|
-|-------0------0--------2-2-|-2---2-------2---2---2-------2---2---2-|
-|---------------------2-----|---------------------------------------|
-|-0-2-3------2------0-------|---------------------------------------|
-|---------------------------|-2-2---2-3-3---3-2-2---2-0-0---0-2-2-3-|

 Gtr 1
-|-----0------0---------|-------------------------|---------------|
-|-----1------1-----1-1-|-3---3-------0---3---3---|---0---2-----3-|
-|---0------0-------2-2-|-2---2-------0-------2---|---1---2-----4-|
-|----------------2-----|-------------------------|---------------|
-|-3------2-----0-------|-------------------------|-----2---3/5---|
-|----------------------|-2-2---2-3-3---3-2-2---2-|-0-------------|

 Gtr 2
-|-----0-----0----------|-------------------------|---------------|
-|-----1-----1------1-1-|-3---3-------3---3---3---|----0---2----3-|
-|---0-----0--------2-2-|-2---2-------2-------2---|----1---2----4-|
-|----------------2-----|-------------------------|---------------|
-|-3-----2------0-------|-------------------------|---------------|
-|----------------------|-2-2---2-3-3---3-2-2---2-|-0----0---0----|


- 02:26
 Gtr 1
-|----9h10p9----/12-12-9-|
-|-----------10----------|
-|-----------------------|
-|-----------------------|
-|-----------------------|
-|-----------------------|

 Gtr 2
-|----------------------|-------------0-|
-|-----2h3p2------5-5-2-|---2---2---2---|
-|---2-------2----4-4-2-|---2---2---2---|
-|----------------------|---------------|
-|-0--------------------|---------------|
-|----------------4-4-2-|---2-2-0-0-----|

 Gtr 1
-|----/1010-9-7-5-/9-7--7-7-|
-|----------------------5-5-|
-|--------------------------|
-|--------------------------|
-|--------------------------|
-|--------------------------|

 Gtr 2
-|-----------------|---------------|
-|-3---3---2---2---|-0---0---2---3-|
-|-2---2---2---2---|-1---1---2---4-|
-|-----------------|---------------|
-|-----------------|---------------|
-|-2-2---2-0-0---0-|---0---0---0---|

 Gtr 3
-|-----0--------------|----------------------|
-|----2-3----2h3p2----|----------------------|
-|----------------4-2-|----------------------|
-|--------------------|----------------------|
-|--------------------|------------0h2-2/4-r-|
-|--------------------|-0---0---0h2----------|


 Gtr 1
-|-----9h10p9----/12-12-9-|
-|------------10----------|
-|------------------------|
-|------------------------|
-|------------------------|
-|------------------------|

 Gtr 2
-|-----------------------|---------------|
-|------2h3p2----5---5-2-|---2---2---2---|
-|------------3--4---4-2-|---2---2---2---|
-|-----------------------|---------------|
-|-----------------------|---------------|
-|---------------4-4---2-|-2---2-0-0---0-|


 Gtr 1
-|----/1010-9-7-5-/9-7--7-7-|
-|----------------------5-5-|
-|--------------------------|
-|--------------------------|
-|--------------------------|
-|--------------------------|

 Gtr 2
-|-----------------|---------------|
-|-3---3---2---2---|-0---0---2---3-|
-|-2---2---2---2---|-1---1---2---4-|
-|-----------------|---------------|
-|-----------------|---------------|
-|-2-2---2-0-0---0-|---0---0---0---|

 Gtr 3
-|-----0--------------|------------|
-|----2-3----2h3p2----|------------|
-|----------------4-2-|------------|
-|--------------------|------------|
-|--------------------|------------|
-|--------------------|-0---0---0--|

Bridge 1 - 02:50

Verse 7 - 03:08
 Gtr 1
-|--------------------------|--5/7-5----------0-|
-|---------2h3p2----5---5-2-|--------5/7-5--2---|
-|-------2-------2--4---4-2-|-------------------|
-|--------------------------|-------------------|
-|-----0--------------------|-------------------|
-|-0h2--------------4-4---2-|-------------------|

 Gtr 2
-|--------------------------|---------------|
-|---------2h3p2----5---5-2-|---2---2---2---|
-|-------2-------2--4---4-2-|---2---2---2---|
-|--------------------------|---------------|
-|--------------------------|---------------|
-|------------------4-4---2-|-2---2-0-0---0-|

 Gtr 1
-|--------------|--------------------------------|
-|-3---3---3--3-|-2-----2----------2h3p2---------|
-|-2---2---2--1-|---2----------2h4-------4-2-----|
-|--------------|-----2----2h4---------------4-2-|
-|--------------|-0------------------------------|
-|-2-2---2-0--0-|--------------------------------|

 Gtr 2
-|--------------|---------------|
-|-3---3---3--3-|-2---2---2---2-|
-|-2---2---2--1-|-2---2---2---2-|
-|--------------|---------------|
-|--------------|-0-0---0---0---|
-|-2-2---2-0--0-|---------------|


Verse 8 - 03:20
 Gtr 1
-|-------------------|--2-4-4/5-4-2-0-|
-|------2---2---5--2-|----------------|
-|------2---2---4--2-|----------------|
-|-------------------|----------------|
-|--------0----------|----------------|
-|--------------4--2-|----------------|

 Gtr 2
-|-------------------|--------------|
-|------2---2---5--2-|--2---2---2---|
-|------2---2---4--2-|--2---2---2---|
-|-------------------|--------------|
-|--------0----------|--------------|
-|-0h2----------4--2-|--2-2-0-0---0-|

 Gtr 1
-|---------------0-|------------------|
-|-3---3---2h3-----|------0---2-----3-|
-|-2---2-----------|-1----1---2-----4-|
-|-----------------|------------------|
-|-----------------|--------2---3/5---|
-|-----------------|----0-------------|

 Gtr 2
-|-----------------|------------------|
-|-3---3---2---2---|--0---0---2-----3-|
-|-2---2---2---2---|--1---1---2-----4-|
-|-----------------|------------------|
-|-----------------|------------------|
-|-2-2---2-0-0---0-|----0---0----0----|

Verse 1 - 03:33
Bridge 1 - 03:45

Verse 9 - 04:03
 Gtr 1
-|-------------------------|---------------|
-|--------2h3p2----5---5-2-|---2---2---2---|
-|------2-------2--4---4-2-|---2---2---2---|
-|-------------------------|---------------|
-|----0--------------------|---------------|
-|-----------------4-4---2-|-2---2-0-0---0-|

 Gtr 2
-|-------------------------|---------------|
-|--------2h3p2----5---4-2-|---2---2---2---|
-|------2-------2--4---4-2-|---2---2---2---|
-|-------------------------|---------------|
-|-------------------------|---------------|
-|-----------------4-4---2-|-2---2-0-0---0-|

 Gtr 1
-|---------------------------|
-|-----3--------3----3-3---3-|
-|---2---2----2------2-2---2-|
-|---------------------------|
-|-2--------2----------------|
-|-----------------------0---|

 Gtr 2
-|---------------------------|
-|-----3--------3----3-3---3-|
-|---2---2----2------2-2---2-|
-|---------------------------|
-|-2--------2----------------|
-|-----------------------0---|

Outro - 04:15
 Gtr 1
-|-------------------------|--5/7-5----------0-|
-|--------2h3p2----5---5-2-|--------5/7-5--2---|
-|------2-------2--4---4-2-|-------------------|
-|-------------------------|-------------------|
-|----0--------------------|-------------------|
-|-----------------4-4---2-|-------------------|

 Gtr 2
-|-------------------------|---------------|
-|--------2h3p2----5---5-2-|---2---2---2---|
-|------2-------2--4---4-2-|---2---2---2---|
-|-------------------------|---------------|
-|-------------------------|---------------|
-|-----------------4-4---2-|-2---2-0-0---0-|

 Gtr 1
-|--------------|---------0-|
-|-3---3---3--3-|-------2---|
-|-2---2---2--1-|-----2-----|
-|--------------|---2-------|
-|--------------|-0---------|
-|-2-2---2-0--0-|-----------|

 Gtr 2
-|--------------|-----------------------------------0-|
-|-3---3---3--3-|-------2-3-3/5-3-2h3p2-p0--------2---|
-|-2---2---2--1-|-----2-------------------------2-----|
-|--------------|---2-------------------------2-------|
-|--------------|-0-------------------------0---------|
-|-2-2---2-0--0-|-------------------------------------|
Tap to rate this tab
 
# A B C D E F G H I J K L M N O P Q R S T U V W X Y Z