Song name
# A B C D E F G H I J K L M N O P Q R S T U V W X Y Z

Eric Clapton - Wonderful Tonight Acoustic tab

Paul Duckworth - wonderful tonight (unplugged acoustic)
paulduckworth92@gmail.com

************************************
| /   slide up
| \   slide down
| h   hammer-on
| p   pull-off
| ~   vibrato
| +   harmonic
| x   Mute note
| b   Bend
| pb  Pre-bend
| br  Bend release
| pbr Pre-bend release
| brb Bend release bend

************************************

Chord Pattern goes:  G, D, C, D

Intro

E|--------3--------------------2-----------------------0----------------|---2---3---3---5---8----|
B|--------------0-----------3-----3--0--------------1-----1--0----------|------------------------|
G|-----0-----0-----2--0--2--------------2--0-----3--------------2--0----|------------------------|
D|----------------------------------------------------------------------|---0---0---2---4---7----|
A|--------------------------------------------3-------------------------|------------------------|
E|--3-------------------------------------------------------------------|------------------------|


Main Section

E|--------3-----------------------0--------------------0-----------------------0--------------|
B|-----------3--0--1--0--------3-----3--------------1-----1--------------3--3-----3-----------|
G|-----0--------------------2-----------2--------0-----------0--------2--------------2--------|
D|-----------------------0-----------------0--------------------2--0--------------------0-----|
A|--------------------------------------------3-----------------------------------------------|
E|--3-----------------------------------------------------------------------------------------|


Bridge

E|-----------------0-----------------------0-----------|--------3-----------3-------------------|
B|--------------1-----1--------------3--3-----3--------|-----------3-----------3----------------|
G|-----------0-----------0--------2--------------2-----|-----0-----------0----------------------|
D|--------------------------2--0--------------------0--|-------------------------------2--2-----|
A|--0--2--3--------------------------------------------|--------------------------1/2-----------|
E|-----------------------------------------------------|--3-----------2-------------------------|


E|--------------------------0----------------------------0--------------|
B|-----------------------1-----1-------------------3--3-----3-----------|
G|--0-----------------0-----------0-------------2--------------2--------|
D|-----2-----------------------------2-------0--------------------0-----|
A|--------2--0--2--3----------------------------------------------------|
E|----------------------------------------------------------------------|


Intro (X2)

Main Section (X2)

Verse Outro


Intro (X2)

Main Section (X2)

Verse Outro

Intro (X2)

Main Section (X2)

Verse Outro


Intro once - Finish on the G chord
Tap to rate this tab
 
# A B C D E F G H I J K L M N O P Q R S T U V W X Y Z