Song name
# A B C D E F G H I J K L M N O P Q R S T U V W X Y Z

Eric Clapton - Circus Left Town tab

-----------------------------------------------------------------
Circus Left Town - Eric Clapton
-----------------------------------------------------------------
Tabbed by:Seany
Email:themindsnexus@hotmail.com

Tuning: standard

A more detailed tab with the chord phrasing that Eric uses! 

Intro/verse

e|---------------------------------------------------------------|
B|----0h5-----5------5-------------------------------------------|
G|--------6--------6---------------------------------------------|
D|----6-------6------6-------------------------------------------|
A|--0------0-----0-----------------------------------------------|
E|---------------------------------------------------------------|

e|---------------------------------------------------------------|
B|----0------4---------------------------------------------------|
G|-------6--------6-4------this is the correct way to------------|
D|----4------4------4---------play this part---------------------|
A|--0-----0-----0------------------------------------------------|
E|---------------------------------------------------------------|

e|---------------------------------------------------------------|
B|----4-----4-----4----------------------------------------------|
G|------2-----2--------------------------------------------------|
D|----4-----4-----4----------------------------------------------|
A|--3-----3-----3------------------------------------------------|
E|---------------------------------------------------------------|

e|---------------------------------------------------------------|
B|----4h5---------4----------------------------------------------|
G|--------4---------4--------------------------------------------|
D|----6-----------4----------------------------------------------|
A|--4-------4---2-----2------------------------------------------|
E|---------------------------------------------------------------|


Chorus

e|---------------------------------------------------------------|
B|---2-----2-----2-----------------------------------------------|
G|-----1-----1---------------------------------------------------|
D|---2-----2-----2-----------------------------------------------|
A|-0-----0-----0-------------------------------------------------|
E|---------------------------------------------------------------|

e|---------------------------------------------------------------|
B|---4-----4-----4-----------------------------------------------|
G|-----4-----4---------------------------------------------------|
D|---4-----4-----4-----------------------------------------------|
A|-2-----2-----2-------------------------------------------------|
E|---------------------------------------------------------------|

e|---------------------------------------------------------------|
B|----4-----4-----4----------------------------------------------|
G|------2-----2--------------------------------------------------|
D|----4-----4-----4----------------------------------------------|
A|--3-----3-----3------------------------------------------------|
E|---------------------------------------------------------------|

e|---------------------------------------------------------------|
B|----4h5---------4----------------------------------------------|
G|--------4---------4--------------------------------------------|
D|----6-----------4----------------------------------------------|
A|--4-------4---2-----2------------------------------------------|
E|---------------------------------------------------------------|


second part

e|---------------------------------------------------------------|
B|---2-----2-----2-----------------------------------------------|
G|-----1-----1---------------------------------------------------|
D|---2-----2-----2-----------------------------------------------|
A|-0-----0-----0-------------------------------------------------|
E|---------------------------------------------------------------|

e|---------------------------------------------------------------|
B|---4-----4-----4-----------------------------------------------|
G|-----5-----5---------------------------------------------------|
D|---4-----4-----4-----------------------------------------------|
A|---------------------------------------------------------------|
E|-4-----4-----4-------------------------------------------------|

e|---------------------------2-----------------------------------|
B|---2h3--------2-----2------2-----------------------------------|
G|-------2--------2-----1----2-----------------------------------|
D|---4----------2-----2------0-----------------------------------|
A|-2-------2--0-----0-----0--------------------------------------|
E|---------------------------------------------------------------|


| /  slide up
| \  slide down
| h  hammer-on
| p  pull-off
| ~  vibrato
| +  harmonic
| x  Mute note
Tap to rate this tab
 
# A B C D E F G H I J K L M N O P Q R S T U V W X Y Z