Song name
# A B C D E F G H I J K L M N O P Q R S T U V W X Y Z

Eric Clapton - Sunshine Of Your Love Acoustic tab

e|--------------------------------------------------|
B|--------------------------------------------------|
G|-/11-11-9--11---x---------------------------------|
D|-/12-12-10-12---x--x----x----x--------------------|
A|---------------/12-x-11-x-10-x-----8b-------------|
E|----------------0--------------/10-----10~--------|

e|--------------------------------------------------|
B|-10-10-8--10-------------------10-----------------|
G|-11-11-9--11-------------------12-10~--10---------|
D|-12-12-10-12------x----x----x----------12---------|
A|--------------/12-x-11-x-10-x---------------------|
E|--------------------------------------------------|

e|--------------------------------------------------|
B|----/10--10--8----10------------------------------|
G|----/11--11--9----11------------------------------|
D|----/12--12--10---12--------x----x----x-----------|
A|------------------------/12-x-11-x-10-x-----8b----|
E|----------------------------------------/10----10~|
 It's get-ting near dark_

e|--------------------------------------------------|
B|---10--10--8---10---------------------------------|
G|---11--11--9---11---------------------------------|
D|---12--12--10--12--------x----x----x--------------|
A|---------------------/12-x-11-x-10-x-----8b-------|
E|-------------------------------------/10----10~---|
  Lights close  their  tired eyes_  

e|--------------------------------------------------|
B|-10--10--8---10-----------------------------------|
G|-11--11--9---11-----------------------------------|
D|-12--12--10--12------x----x----x------------------|
A|------------------12-x-11-x-10-x-----8b-----------|
E|----------------------------------10----10~-------|
  Soon be with you, my love_

e|--------------------------------------------------|
B|-10--10--8---10-----------------------------------|
G|-11--11--9---11-----------------------------------|
D|-12--12--10--12------x----x----x------------------|
A|------------------12-x-11-x-10-x-----8b-----------|
E|----------------------------------10----10~-------|
  Give you my dawn  sur- prise_ 

e|--------------------------------------------------|
B|-3---3---1---3------------------------------------|
G|-4---4---2---4------------------------------------|
D|-5---5---3---5-----------x---x---x----------------|
A|-----------------------5-x-4-x-3-x----1b----------|
E|------------------------------------3-----3~------|
   Be with you darling, soon

e|--------------------------------------------------|
B|-3---3---1---3------------------------------------|
G|-4---4---2---4------------------------------------|
D|-5---5---3---5-----------x---x---x-----------x----|
A|-----------------------5-x-4-x-3-x----1b-----x----|
E|------------------------------------3-----3~------|
   Be with you when the [stars] start a-falling

e|--------------------------------------------------|
B|--------------------------------------------------|
G|-/11-11-9--11---x---------------------------------|
D|-/12-12-10-12---x--x----x----x--------------------|
A|---------------/12-x-11-x-10-x-----8b-------------|
E|----------------0--------------/10-----10~--------|

e|--------------------------------------------------|
B|--------------------------------------------------|
G|-/11-11-9--11---x---------------------------------|
D|-/12-12-10-12---x--x----x----x--------------------|
A|---------------/12-x-11-x-10-x-----8b-------------|
E|----------------0--------------/10-----10~--------|

e|--------------------------------------------------|
B|-2--2-2-------------5-----3--3--------------------|
G|-2--2-2-------------5---x-4--4-x------------------|
D|-2--2-2--x---x------5---x-5--5-x------------------|
A|-0--0-0--x---x------3---x------x------------------|
E|--------------------------3--5--------------------|
          I've been waiting so long

e|--------------------------------------------------|
B|-2--2-2-------------5--------3--3-----------------|
G|-2--2-2-------------5---x-4--4--4-----------------|
D|-2--2-2--x---x------5---x-5--5--5-----------------|
A|-0--0-0--x---x------3---x-------------------------|
E|--------------------------3--5--3-----------------|
           To  be [where] I am going_

e|--------------------------------------------------|
B|-2--2-2---------------5--------3--3---5--5--5-5-5-|
G|-2--2-2---------------5---x-4--4--4---6--6--6-6-6-|
D|-2--2-2--x---x--------5---x-5--5--5---7--7--7-7-7-|
A|-0--0-0--x---x--------3---x-----------------------|
E|----------------------------3--5--3---5--5--5-5-5-|
           In the     Sunshine of your love_


-Outro-
e|----------------------------------------------2---|
B|---10--10--8---10------------------------10---3---|
G|---11--11--9---11------------------------10---2---|
D|---12--12--10--12--------x----x----x-----10---0---|
A|---------------------/12-x-11-x-10-x-----8--------|
E|-------------------------------------/10----------|

e|--------------------------------------------------|
B|---------3-------3-----------x--------------------|
G|-------2-------2-------2-----x--------------------|
D|-0---0-------0-------0-------x--------------------|
A|---3-------2-------1-----0---x--------------------|
E|--------------------------------------------------|


It's getting near dark
Lights close their [tired] eyes
Soon be with you, my love_
Give you my dawn surprise 

Be with you darling, soon
Be with you when the [stars] start a-falling

I have been waiting so long
To be [where] I am going
In [the] sunshine of your love_

With you my love 
Light's shining through on you
Yes, I'm with you my love
It's the morning, and just we two

Stay with you darling now
Stay with you till my seeds are all dried up

I have been waiting so long
To be [where] I am going
In [the] sunshine of your love_
Tap to rate this tab
 
# A B C D E F G H I J K L M N O P Q R S T U V W X Y Z