Song name
# A B C D E F G H I J K L M N O P Q R S T U V W X Y Z

Eric Clapton - The Sky Is Crying tab

The Sky Is CryinĎ

Verse 1:

Em7			Am7			                         Em7
      The sky is crying,	 look at the tears rolling down the street
Em7			Am7			                         Em7
      The sky is crying,	 look at the tears rolling down the street
Bm7				Am7		                  Em7
          I looked out my window, the rain is falling down the street


Verse 2:

Em7					Am7			         Em7
     My baby left me this morning,		of course I donít know the reason why
Em7					Am7			         Em7
     My baby left me this morning,		 I oh I donít know the reason why
Bm7					Am7	                    Em7
           And everytime I think about it, I hate my head to (/and) cry

Solo 1:

--------------------------12--------------------|
-------12---10-------10b-----b10---8--------8/--|
-9/11----------------------------------9----9/--|
------------------------------------------------|
------------------------------------------------|
------------------------------------------------|

-------------12-------12b-12----10-----------------------------------|
----10/12---------------------------10b-10--8------------------------|
-------------------------------------------------------11ó9/---------|
---------------------------------------------------------------------|
---------------------------------------------------------------------|
---------------------------------------------------------------------|


------------------------12-------------12--|
-----8---8--10--8ó10/12----b12-10-8ó12b----|
-7/9---9-----------------------------------|
-------------------------------------------|
-------------------------------------------|
-------------------------------------------|

--------10b-10-7-------------------|
---------------------10-8-----/----|
-----------------------------9/----|
-----------------------------------|
-----------------------------------|
-----------------------------------|


Verse 3:
Em7			Am7			                     Em7
     The sun is shining,	 oh no (/and now) itís raining in my heart

------10--7----------------------------|
--------------10--8--------------------|
--/9------------------9/---------------|
---------------------------------------|
---------------------------------------|
---------------------------------------|

Em7			Am7			                     Em7
     The sun is shining,	 oh no (/and now) itís raining in my heart

----------------------------------------7---------------------|
------8---10b--10--8-----------------------10b10--8----8/-----|
-7/9---------------------9/---------------------------9-/-----|
--------------------------------------------------------------|
--------------------------------------------------------------|
--------------------------------------------------------------|

Bm7			Am7		Em7
      I loved my baby, hey the sun is born yeah, 	yes


Solo 2:


I didnít tab this solo out, because it was too difficult for me to hear
Tap to rate this tab
 
# A B C D E F G H I J K L M N O P Q R S T U V W X Y Z