Song name
# A B C D E F G H I J K L M N O P Q R S T U V W X Y Z

Eric Clapton - Tears In Heaven tab

                                Tears In Heaven                                 



E||----------------------|--------0-----3-----3--0----|
B||----------------------|--------1--1--------0-------|
G||----------------------|-----0-----------0----------|
D||----------------------|----------------------------|
A||----------------------|--3-----------2-------------|
E||------------------3-5-|----------------------------|



--------3-5----3----0--------0--|--1-----1-----1-----1-----|
------------------3----3--1-----|--1-----1-----0-----0-----|
-----2--------------------------|-----2-----2-----0-----0--|
--------------------------------|--------------------------|
--0-----------------------------|--------------------------|
--------------------3-----------|--1-----------3-----------|



--0-----0-----0-----0------|--------0-----3-----3--0--|
--1-----1-----1-----1------|-----------1--------------|
-----0-----0-----0---------|-----0-----------0--------|
---------------------------|--------------------------|
--3-----------3----------0-|--3-----------2-----------|
-----------------------3---|--------------------------|



--------------------0-----|--------1--1--0--------0--|
-----3--1-----------1-----|--------1--------3--1-----|
-----------------0-----0--|-----2--------0-----------|
--------------------------|--------------------------|
--0--------0--------------|--------------3-----------|
--------------3-----------|--1-----------------------|



--------------0-----1------|--------0-----3--------0--|
--3-----3-----0-----0------|-----------1--------3-----|
-----0--4--0-----0---------|-----0-----------0--------|
---------------------------|--------------------------|
-------------------------0-|--3-----------2-----------|
--3--------------------3---|--------------------------|



--------------------------|--------1--1--0--------0--|
-----3--1-----0-----1-----|--------1--------3--1-----|
-----------------0-----2--|-----2--------0-----------|
--------------------------|--------------------------|
--0--------0--------------|--------------3-----------|
--------------3-----------|--1-----------------------|



--------------0-----1-----|--------------------------|
--3-----3-----0-----0-----|-----------1--1-----3--0--|
-----0--4--0-----0--------|--------2--5-----2--------|
--------------------------|-----2-----------2--------|
--------------------------|--0-----------------------|
--3--------------------3--|--------------------------|



-----------------------0--|--------------------------|
-----------------0--3-----|--------------------1-----|
--------1-----------------|--------0--3--3--0-----2--|
-----2-----2--------------|-----0-----8-----0--------|
--------------------------|--------------------------|
--0-----------4-----------|--3-----------------------|



--------------------0-----|--1--------------------------|
--------2-----3-----------|------3-------3--3-----1--0--|
--------2--------2-----2--|----2------2--------2--------|
-----2-----2--------------|--0-----3--------0-----------|
--0-----------------------|-----------------------------|
--------------------------|-----------------------------|



------1---1-------1-----0--------------|--------0-----3-----3--0----|
------0---0-------0---3------3--1-3----|--1-----1--1--------0-------|
------0---0-------0--------------------|-----0-----------0----------|
---------------------------------------|----------------------------|
---------------------------------------|--3-----------2-------------|
--3-----------3------------------------|----------------------------|



--------3-5----3----0--------0--|--1-----1-----1-----1-----|
------------------3----3--1-----|--1-----1-----0-----0-----|
-----2--------------------------|-----2-----2-----0-----0--|
--------------------------------|--------------------------|
--0-----------------------------|--------------------------|
--------------------3-----------|--1-----------3-----------|



--0-----0-----0-----0------|--------3--3--1-----1-----|
--1-----1-----1-----1------|-----------------------4--|
-----0-----0-----0---------|-----3-----------3--------|
-------------------------0-|--1-----------0-----------|
--3-----------3--------3---|--------------------------|
---------------------------|--------------------------|



--------------1-----------|--------------1-----1-----|
--------4--3--------1--3--|--------3-----1-----1-----|
-----0-----------2--------|--------3--------2-----2--|
--------------------------|-----3-----3--------------|
--3-----------0-----------|--1-----------0-----------|
--------------------------|--------------------------|



--3-----3-----1-----------|--------3--3--1-----1-----|
--3-----3-----1-----3-----|-----------------------4--|
-----3-----3-----2--3-----|-----3-----------3--------|
-----------------------3--|--1-----------0-----------|
--------------0-----1-----|--------------------------|
--3-----------------------|--------------------------|



--------------1-----------|--------------------1--3--|
--------4--3--------1--3--|--------3--------3--------|
-----0-----------2--------|--------3-----------------|
--------------------------|-----3-----3--------------|
--3-----------0-----------|--1-----------0-----------|
--------------------------|--------------------------|



--------------0-----1------|--------0-----3-----3--0--|
--------3-----0-----0------|-----------1--------------|
-----0--4--0-----0---------|-----0-----------0--------|
---------------------------|--------------------------|
-------------------------0-|--3-----------2-----------|
--3--------------------3---|--------------------------|



--------------------0-----|--------1--1--0--------0--|
-----3--1-----------1-----|--------1--------3--1-----|
-----------------0-----0--|-----2--------0-----------|
--------------------------|--------------------------|
--0--------0--------------|--------------3-----------|
--------------3-----------|--1-----------------------|



--------------0-----1------|--------0-----3--------0--|
--3-----3-----0-----0------|-----------1--------3-----|
-----0--4--0-----0---------|-----0-----------0--------|
---------------------------|--------------------------|
-------------------------0-|--3-----------2-----------|
--3--------------------3---|--------------------------|



--------------------------|--------1--1--0--------0--|
-----3--1-----0-----1-----|--------1--------3--1-----|
-----------------0-----2--|-----2--------0-----------|
--------------------------|--------------------------|
--0--------0--------------|--------------3-----------|
--------------3-----------|--1-----------------------|



--------------0-----1-----|--------------------------|
--3-----3-----0-----0-----|-----------1--1-----3--0--|
-----0--4--0-----0--------|--------2--5-----2--------|
--------------------------|-----2-----------2--------|
--------------------------|--0-----------------------|
--3--------------------3--|--------------------------|



-----------------------0--|--------------------------|
-----------------0--3-----|--------------------1-----|
--------1-----------------|--------0--3--3--0-----2--|
-----2-----2--------------|-----0-----8-----0--------|
--------------------------|--------------------------|
--0-----------4-----------|--3-----------------------|



--------------------0-----|--1--------------------------|
--------2-----3-----------|------3-------3--3-----1--0--|
--------2--------2-----2--|----2------2--------2--------|
-----2-----2--------------|--0-----3--------0-----------|
--0-----------------------|-----------------------------|
--------------------------|-----------------------------|



------1---1-------1-----0--------------|--------0-----3-----3--0----|
------0---0-------0---3------3--1-3----|--1-----1--1--------0-------|
------0---0-------0--------------------|-----0-----------0----------|
---------------------------------------|----------------------------|
---------------------------------------|--3-----------2-------------|
--3-----------3------------------------|----------------------------|



--------3-5----3----0--------0--|--1-----1-----1-----1-----|
------------------3----3--1-----|--1-----1-----0-----0-----|
-----2--------------------------|-----2-----2-----0-----0--|
--------------------------------|--------------------------|
--0-----------------------------|--------------------------|
--------------------3-----------|--1-----------3-----------|
Tap to rate this tab
 
# A B C D E F G H I J K L M N O P Q R S T U V W X Y Z