Song name
# A B C D E F G H I J K L M N O P Q R S T U V W X Y Z

Eric Clapton - Holy Mother tab

NikolajB

nikolajboesen@hotmail.com

This is Holy Mother by Eric Clapton. This tab is made over the version with "Eric 
Clapton & Friends".
Tabs are very simple. Just play The same riff throughout the song. Didn't tabbed the solo.
The song makes small changes at the verses, but the simple version is just to play this 
riff in the verses too.

Played with capo on 4th fret (and on a awesome red fender guitar)!

Good Luck!

E [-------------------------------------------------------------------]
H [-------------------------------------------------------------------]
G [---------0-----0--------------0------0-----------------0-----------]
D [-----------------0-------0h2-----------0--------2--------2---------]
A [----0h2----2-------2---3-----------------2----2---2--------2-------]
E [--3------------------------------3----------0----------------------]


E [--------------3----------------------------------------------------]
H [-----------------0-------------------------------------------------]
G [------0------------0-----------------------------------------------]
D [---0---------------------------------------------------------------]
A [-------------------------------------------------------------------]
E [-2-------2---------------------------------------------------------]

h=Hammer on

-NikolajB
Tap to rate this tab
# A B C D E F G H I J K L M N O P Q R S T U V W X Y Z