Song name
# A B C D E F G H I J K L M N O P Q R S T U V W X Y Z

Eric Clapton - Wonderful Tonight Acoustic tab

#-------------------------------PLEASE NOTE-------------------------------------#
# This file is the author's own work and represents their interpretation of the #
# song. You may only use this file for private study, scholarship, or research. #
#-------------------------------------------------------------------------------#
Wonderful Tonight chords for acoustic guitar
Eric Clapton 1977 (Slowhand album)

e|----7---------7---------7---------|
B|-----10-8-10---10-8------10-8-10--|
G|-7*-----------------9-------------|
D|----------------------------------|
A|----------------------------------|
E|----------------------------------| 

D G C6 C D

e|-7---------7---------7---------------12-10-|
B|---10-8-10---10-8------10-8-10-12-13-------|
G|------------------9------------------------|
D|-------------------------------------------|
A|-------------------------------------------|
E|-------------------------------------------| 

     G           D       C                     D               G
It's late in the evening; she's wondering what clothes to wear.
                   D      C                D                C
She'll puts on her make-up and brushes her long blonde hair.
             D      G                Em
And then she asks me, "Do I look all right?"
            C             D           G
And I say, "Yes, you look wonderful tonight."

e|-7---------7---------7---------------12-10-|
B|---10-8-10---10-8------10-8-10-12-13-------|
G|------------------9------------------------|
D|-------------------------------------------|
A|-------------------------------------------|
E|-------------------------------------------| 

   G       D    C             D           G
We go to a party and everyone turns to see
               D   C                D             C
This beautiful lady that's walking around with me.
             D       G                 Em
And then she asks me, "Do you feel all right?"
            C           D           G
And I say, "Yes, I feel wonderful tonight."

       C           D
I feel wonderful because I see
    G                  Em
The love light in your eyes.
        C            D
And the wonder of it all
            C          G  D        C      D
Is that you just don't realize how much I love you.

e|---7---------7---------7---------|
B|----10-8-10---10-8------10-8-10--|
G|-7-----------------9-------------|
D|---------------------------------|
A|---------------------------------|
E|---------------------------------| 

D G C6 C D

e|-7---------7---------7---------------12-10-|
B|---10-8-10---10-8------10-8-10-12-13-------|
G|------------------9------------------------|
D|-------------------------------------------|
A|-------------------------------------------|
E|-------------------------------------------| 

D G C6 C D

     G          D       C                D           G
It's time to go home now and I've got an aching head,
                  D       C                    D   C        
So I give her the car keys and she helps me to bed.
           D        G                  Em
And then I tell her, as I turn out the light,
           C                 D           G
I say, "My darling, you were wonderful tonight.

      C                 D           G
Oh my darling, you were wonderful tonight."

e|---7---------7---------7---------|
B|----10-8-10---10-8------10-8-10--|
G|-7-----------------9-------------|
D|---------------------------------|
A|---------------------------------|
E|---------------------------------| 

D G C6 C D

e|-7---------7---------7---------------12-10-|
B|---10-8-10---10-8------10-8-10-12-13-------|
G|------------------9------------------------|
D|-------------------------------------------|
A|-------------------------------------------|
E|-------------------------------------------|

* optional


Set8
Tap to rate this tab
# A B C D E F G H I J K L M N O P Q R S T U V W X Y Z