Song name
# A B C D E F G H I J K L M N O P Q R S T U V W X Y Z

Eric Clapton - Tears In Heaven tab

Artist: Eric Clapton
Song: Tears in heaven
Tuning: Standard (EADGBe)

So, this is my second tab here and this is for Clapton's Tears in heaven.
There are so many versions of this song and this is just one of 'em. There 
are only one guitar but if you wanna play with two guitars, then other guitar
could strum chords or something like that... but, here we go, enjoy :)
(questons to my e-mail: musstikka@hotmail.com)

Legend:
p = pull off
h = hammer on
/ = slide
~ = let ring 

INTRO: 

         A            E/G#     F#m
e|-----|-------------------------------5/7-5------------0-|
B|-----|-------2h3----5-----5--2-------5/7-5--5/7-5--2----|
G|-----|----2------2--4-----4--2--------------4/6-4--2----|
D|-----|--------------------------------------------------|
A|-----|-0------------------------------------------------|
E|-0h2-|-----------------4----------2---------------------|

   D/F#        E7          A
e|--------------------------------------------------|
B|-3-----3-----3-----3-----2-----2-----2-----2------|
G|-2-----2-----2-----1-----2-----2-----2-----2------|
D|--------------------------------------------------|
A|----------------------------0-----0-----0---------|
E|----2-----2-----0-----0-----------------------0h2-|

VERSE RIFF:

   A            E/G#     F#m           A/E
e|--------------------------------------------------|
B|-------2h3----5-----5--2-------2-----2-----2------|
G|----2------2--4-----4--2-------2-----2-----2------|
D|--------------------------------------------------|
A|-0------------------------------------------------|
E|-----------------4----------2-----2-----0-----0---|

   D/F#        A/E                           E7
e|-------------------0------------------------------|
B|-3-----3-----2-h3-----0--------0-----2-----3------|
G|-2-----2-----2--------1--------1-----2-----4------|
D|--------------------------------------------------|
A|--------------------------------------------------|
E|----2-----2-----------------0-----0-----0-----0h2-|

   A            E/G#     F#m
e|-------------------------------5/7-5------------0-|
B|-------2h3----5-----5--2-------5/7-5--5/7-5--2----|
G|----2------2--4-----4--2--------------4/6-4--2----|
D|--------------------------------------------------|
A|-0------------------------------------------------|
E|-----------------4----------2---------------------|

   D/F#        A/E                           E7
e|-------------------0------------------------------|
B|-3-----3-----2-h3-----0--------0-----2-----3------|
G|-2-----2-----2--------1--------1-----2-----4------|
D|--------------------------------------------------|
A|--------------------------------------------------|
E|----2-----2-----------------0-----0-----0-----0---|

CHORUS:

   F#m                     Db/F
e|-------2-----------2-----------1-----------1------|
B|-2-----2-----2-----2-----2-----2-----2-----2------|
G|-2-----------2-----------1-----------1------------|
D|--------------------------------------------------|
A|--------------------------------------------------|
E|----2-----2-----2-----2-----1-----1-----1-----1---|

   A7/E                    F#7
e|-------0-----------0------------------------------|
B|-2-----2-----2-----2-----------------------2------|
G|-0-----------0-----------3-----3-----4------------|
D|-------------------------2-----2------------------|
A|--------------------------------------------------|
E|----0-----0-----0-----0-----2-----2-----2-----2---|

   Bm7                          E7
e|--------------------------------------------------|
B|-3-----3-----3-----3----------3--3-----3----------|
G|-2-----2-----2-----2----------2--2-----2----------|
D|--------------------------------------------------|
A|----2-----2-----2---------------------------------|
E|----------------------0-------------0---------0h2-|

LITTLE BRIDGE I:

   A            E/G#     F#m
e|-------------------------------5/7-5------------0-|
B|-------2h3----5-----5--2-------5/7-5--5/7-5--2----|
G|----2------2--4-----4--2--------------4/6-4--2----|
D|--------------------------------------------------|
A|-0------------------------------------------------|
E|-----------------4----------2---------------------|

   D/F#        E7          A
e|----------------------------------------------------|
B|-3-----3-----3-----3-----2-----2--------2h3-2-------|
G|-2-----2-----2-----1-----2-----2-----2h4-----h4-2---|
D|----------------------------------2h4------------h4-|
A|----------------------------0-----------------------|
E|----2-----2-----0-----0-----------------------------|

*PLAY VERSE*

*PLAY CHORUS*

LITTLE BRIDGE II:

   A            E/G#     F#m           A/E
e|--------------------------------------------------|
B|-------2h3----5-----5--2-------2-----2-----2------|
G|----2------2--4-----4--2-------2-----2-----2------|
D|--------------------------------------------------|
A|-0------------------------------------------------|
E|-----------------4----------2-----2-----0-----0---|

   D/F#        E7          A
e|--------------------------------------------------|
B|-3-----3-----3-----3-----2-----2-----2-----2------|
G|-2-----2-----2-----1-----2-----2-----2-----2------|
D|--------------------------------------------------|
A|----------------------------0-----0-----0-----0h2-|
E|----2-----2-----0-----0---------------------------|

BRIDGE:

   C           G/B         Am          D/F#
e|-------0-----------3-----------0------------------|
B|-------1-----------3-----------1-----------3------|
G|----0-----0-----0-----0-----2-----2--------2------|
D|----------------------------------------0-----0---|
A|-3-----------2-----------0------------------------|
E|-------------------------------------2------------|

   G           D/F#        Em9         D/F#  G          
e|--------------------------------------------------|
B|-3-----3-----3-----3-----3-----3-----3-----3------|
G|-4-----4-----2-----2-----0-----0-----2-----4------|
D|--------------------------------------------------|
A|--------------------------------------------------|
E|----3-----3-----2-----2-----0-----0-----2-----3---|


  C           G/B         Am          D/F#
e|-------0-----------3-----------0------------------|
B|-------1-----------3-----------1-----------3------|
G|----0-----0-----0-----0-----2-----2--------2------|
D|----------------------------------------0-----0---|
A|-3-----------2-----------0------------------------|
E|-------------------------------------2------------|

   G           D/F#        E~
e|--------------------------------------------------------|
B|-3-----3-----3-----3------------------------------------|
G|-4-----4-----2-----2-----------1-------2-------4--------|
D|--------------------------------------------------------|
A|----------------------------2-----2/4-----4/5-----------|
E|----3-----3-----2-----2--0------------------------(0h2)-|

SOLO:
There're many various solos for this song, but this is the on that I've played... 
(Solo backing = Verse riff)

e|-------9-7----------12/14-9~----------------------|
B|-----------10-------------------------------------|
G|--------------------------------------------------|
D|--------------------------------------------------|
A|--------------------------------------------------|
E|--------------------------------------------------|

e|-------10/12-9---9p7----9~------------------------|
B|---------------------10---------------------------|
G|--------------------------------------------------|
D|--------------------------------------------------|
A|--------------------------------------------------|
E|--------------------------------------------------|

e|-------9-7------12---14-9~------------------------|
B|-----------10-------------------------------------|
G|--------------------------------------------------|
D|--------------------------------------------------|
A|--------------------------------------------------|
E|--------------------------------------------------|

e|-------10/12-9---9-7h9p7------------9-----10------|
B|-------------------------10/12~-------------------|
G|--------------------------------------------------|
D|--------------------------------------------------|
A|--------------------------------------------------|
E|--------------------------------------------------|

*PLAY CHORUS*

*PLAY LITTLE BRIDGE I*

*PLAY VERSE*

*PLAY CHORUS*

OUTRO:

   A            E/G#     F#m
e|-------------------------------5/7-5------------0-|
B|-------2h3----5-----5--2-------5/7-5--5/7-5--2----|
G|----2------2--4-----4--2--------------4/6-4--2----|
D|--------------------------------------------------|
A|-0------------------------------------------------|
E|-----------------4----------2---------------------|

   D/F#        E7          A~
e|----------------------------------------------------------------|
B|-3-----3-----3-----3--------------2--3-2h3p2------------5/10~---|
G|-2-----2-----2-----1-----------2--------------4--2--4/6---------|
D|----------------------------2-----------------------------------|
A|-------------------------0--------------------------------------|
E|----2-----2-----0-----0-----------------------------------------|

Song ends
Tap to rate this tab
# A B C D E F G H I J K L M N O P Q R S T U V W X Y Z