Song name
# A B C D E F G H I J K L M N O P Q R S T U V W X Y Z

Eric Clapton - Nobody Knows You When Youre Down And Out Acoustic tab

Ok....I've seen this song tabbed by quite a few people that put mostly
chords up, and I've been playing it this way for quite some time.
The pattern repeats through out the whole song except for the ending
which I'm still working out and will tab later.
Hope you enjoy playing it as much as I do!
Tabbed by:  Dan Blecher

Standard Tuning


e|------------0-0-0-0----0--1--0-------1-1-0-0-1---------1-------------------|
B|------------1-1-3-3-2--2--2---2------3-3-2-2-3-------3---3-----------------|
G|------------0-0-2-2-0--0--0----0-----2-2-0-0-2-----2-------2---------------|
D|---------------------------------0-0-0-0-2-2-0-0-0-----------0-------------|
A|----0-2-3-3-3-3-2-2-0-0-0--------------------------------------------------|
E|--3------------------------------------------------------------------------|


e|-----------1---3-1---0-0-0-0---0------2---2-2--1-1-1-----------------------|
B|-----------1---1-1---1-1-3-2---2------1---1-1--0-0-0-----------------------|
G|-----------2---2-2-0-0-0-2-0---0------2---2-2--0-0-0-----------------------|
D|---0-2-3-3-3-3-3-3----------------0-0-0-0-0-0------------------------------|
A|---------------------3-3-2-0-0---0-----------------------0-2-3-------------|
E|----------------------------------------------3----3--3-3------------------|
Tap to rate this tab
# A B C D E F G H I J K L M N O P Q R S T U V W X Y Z