Song name
# A B C D E F G H I J K L M N O P Q R S T U V W X Y Z

Eric Clapton - Wonderful Tonight Acoustic tab

Wonderful Night by Eric Clapton
Tabbed by: Rowwen

Tuning: Standard

Learnt playing this song by youtube.
Could't find this version of the song, so i decided to tab it for you all.
For questions please leave comments or mail me: rdhjohan@gmail.com

Main Riff:
e-|-----------------|-------------|-----|-----------|
B-|---------0-------|---------0---|-----|---------0-|
G-|-----0---0-2-0-2-|-----2---2-2-|-----|-----0---0-|
D-|---0---0---------|---0---0-----|-0---|---2-------|
A-|-----------------|-------------|---2-|-3-----3-3-|
E-|-3-------3-------|-2-------2---|-----|-----------|

e-|-------|-----|---------0---|
B-|-------|-----|-0---1-------|
G-|-2-0-2-|-----|-----------0-| (2X)
D-|-------|---0-|---0---0-----|
A-|-------|-----|-----0-------|
E-|-------|-2---|-3-----------|


Verse:
   G-------------------D----------------C------------------D
e-|--------3-------|-------2-3-2-0---|---------0-------|---------2--------|
B-|----0-----0---0-|-----3---------0-|-----1-----1---1-|-----3------3---3-|
G-|--0---0-----0---|---2-------------|---0---0-----0---|---2---2------2---|
D-|----------------|-0---------------|-----------------|-0----------------|
A-|----------------|-----------------|-3---------------|------------------|
E-|-3--------------|-----------------|-----------------|------------------|


   G-------------------D----------------C------------------D
e-|-------3-------|-------2-3-2-0---|---------0-------|---------2---------|
B-|----0----0---0-|-----3---------0-|-----1-----1---1-|-----3------3------|
G-|--0---0----0---|---2-------------|---0---0-----0---|---2---2-----------|
D-|---------------|-0---------------|-----------------|-0-----------------|
A-|---------------|-----------------|-3---------------|---------------0-2-|
E-|-3-------------|-----------------|-----------------|-------------------|


   C-------------------D----------------G---------Gmaj7 
e-|---------0-------|---------2-------|---------|---------|
B-|-----1-----1---1-|-----3-----3---3-|-----0---|-----0---|
G-|---0---0-----0---|---2---2-----2---|---0---0-|---0---0-|
D-|-----------------|-0---------------|---------|---------|
A-|-3---------------|-----------------|---------|---------|
E-|-----------------|-----------------|-3-------|-2-------|


   Em------------------C-----------------D
e-|---------0-------|---------0-------|---------2-------|
B-|-----0-----0---0-|-----1-----1---1-|-----3-----3---3-|
G-|---0---0-----0---|---0---0-----0---|---2---2-----2---|
D-|-----------------|-----------------|-0---------------|
A-|-----------------|-3---------------|-----------------|
E-|-0---------------|-----------------|-----------------|


   G                    
e-|--------3--------|
B-|----0------0---0-|
G-|--0---0------0---|
D-|-----------------|
A-|-----------------|
E-|-3---------------|






Chorus:

   C------------------D-----------------G---------Gmaj7 
e-|---------0-------|---------2-------|---------|---------|
B-|-----1-----1---1-|-----3-----3---3-|-----0---|-----0---|
G-|---0---0-----0---|---2---2-----2---|---0---0-|---0---0-|
D-|-----------------|-0---------------|---------|---------|
A-|-3---------------|-----------------|---------|---------|
E-|-----------------|-----------------|-3-------|-2-------|


   Em-----------------C-----------------D
e-|---------0-------|---------0-------|---------2-------|
B-|-----0-----0---0-|-----1-----1---1-|-----3-----3---3-|
G-|---0---0-----0---|---0---0-----0---|---2---2-----2---|
D-|-----------------|-----------------|-0---------------|
A-|-----------------|-3---------------|-----------------|
E-|-0---------------|-----------------|-----------------|


   C------------------D-----------------G
e-|---------0-------|---------2-------|---|
B-|-----1-----1---1-|-----3-----3---3-|---|
G-|---0---0-----0---|---2---2-----2---|---|
D-|-----------------|-0---------------|---|
A-|-3---------------|-----------------|---|
E-|-----------------|-----------------|-3-|


Wonderful Tonight by Eric Clapton


Riff 2x


Verse1
It's late in the evening; she's wondering what clothes to wear.
She'll put on her make-up and brushes her long blonde hair.
And then she値l asks me, "Do I look all right?"
And I値l say, "Yes, you look wonderful tonight."


Riff


Verse2
We go to a party and everyone turns to see
This beautiful lady that's walking around with me.
And then she値l asks me, "Do you feel all right?"
And I値l say, "Yes, I feel wonderful tonight."


Chorus
I feel wonderful because I see
The love light in your eyes.
And the wonder of it all
Is that you just don't realize how much I love you.


Riff 2x


Verse3
It's time to go home now and I've got an aching head,
So I give her the car keys and she helps me to bed.
And then I値l tell her, as I turn out the light,
I say, "My darling, you were wonderful tonight.
Oh my darling, you were wonderful tonight."


Riff2x
Tap to rate this tab
 
# A B C D E F G H I J K L M N O P Q R S T U V W X Y Z