Guitaretab - guitar tabs
Song name
# A B C D E F G H I J K L M N O P Q R S T U V W X Y Z

Eric Clapton - Riding With The King tab

Eric Clapton  Riding With The King

Tabbed by Uchiha23

gtr 2. with low dist

------------------------------------------------------------------]
------------------------------------------------------------------]
----------14------------------------------------------------------]
-12/14---(14)-----------------------------------------------------]
------------------------------------------------------------------]
------------------------------------------------------------------]

gtr 1. clean bluesy punch

------------------------------------------------------------------]
------------------------------------------------------------------]
----------------------------------------2-------------------------]
----------2------4-----4/5-----4-----5----------------------------]
----0--------0------0-------0-----0---------------0---------------]
------------------------------------------------------------------]

------------------------------------------------------------------]
-(14)-------------------------------------------------16----------]
------------------------------------------------------------------]
-(14)------------------------------------------14/16-(16)---------]
------------------------------------------------------------------]
------------------------------------------------------------------]

------------------------------------------------------------------]
------------------------------------------------------------------]
------------------------------------------------------------------]
---2-----4-----4/5----4-----4/5-----4-----5---------4-------------]
------0-----0------0-----0-------0-----0--------0---2-------------]
------------------------------------------------------------------]

-----10 (Bd)--10 (BD)--------------10--12(BD)---------------------]
--12------------------------------------------12-------15 (BD)----]
---------------------------------------------------------------13-]
------------------------------------------------------------------]
------------------------------------------------------------------]
------------------------------------------------------------------]

------------------------------------------------------------------]
-------------------------------------------------------------(16)-]
-------------------------------------------------------------(16)-]
------------------------------------------------------------------]
------------------------------------------------------------------]
------------------------------------------------------------------]
[ Tab from: http://www.guitaretab.com/e/eric-clapton/37116.html ]
------------------------------------------------------------------]
------------------------------------------------------------------]
---------------------4--4-------4---4------4--------4------4------]
----(4)--------------4--4-------4---4------4--------4------4------]
----(2)-----------------------------------------------------------]
------------------------------------------------------------------]

Outro:
                                        
--12(BU)(BD)12------------10(BD)10(BD)-----------------12-10-12---]
---------------12---10-12--------------12---------10--------------]
------------------------------------------------------------------]
------------------------------------------------------------------]
------------------------------------------------------------------]
------------------------------------------------------------------]

---/19\--10----9----------7--------------------------7---7--------]
--------------------------------------------9------7--------------]
-----------------------------9--7-----------9---------------------]
------------------------------------9--7--9-----------------------]
------------------------------------------------------------------]
------------------------------------------------------------------]

12--12-10----12---12-10-------12---12 10------10----10-10-12-12---]
----------12--------------12--------------12-----11---------------]
------------------------------------------------------------------]
------------------------------------------------------------------]
------------------------------------------------------------------]
------------------------------------------------------------------]

-12-12-10------------------10-----12----10------------------------]
------------12----12--9-------12----------------------------------]
------------------------------------------------------------------]
------------------------------------------------------------------]
------------------------------------------------------------------]
------------------------------------------------------------------]

-----12----12---12----------12------------------------------------]
-12---------------------------------------------------------------]
------------------------------------------------------------------]
------------------------------------------------------------------]
------------------------------------------------------------------]
------------------------------------------------------------------]

--10-12-10--------------------------10-12-10----------------------]
------------12-\-----------------12----------12-10----------------]
------------------------------------------------------------------]
------------------------------------------------------------------]
------------------------------------------------------------------]
------------------------------------------------------------------]
Related for Riding With The King tab