Song name
# A B C D E F G H I J K L M N O P Q R S T U V W X Y Z

Eric Clapton - Got To Hurry tab

Help us improve GuitareTab! Take a short survey!
song:
artsit:
album:??
tabbed by: scrubadubdub032

This song is really easy. Its a simple twelve bar blues in A. It has one main riff which is...

e---------------------|
b---------------------|
g---------------------|
d----7-7-5-5----------|
a-----------7-7-------|
e-5-5-----------------|x2

e---------------------|
b---------------------|
g-----7-7-5-5---------|
d------------7-7------|
a-5-5-----------------|
e---------------------|x2

e-----------------------|
b-----------------------|
g-----------------------|
d----7-7-5-5------------|
a-----------7-7---------|
e-5-5-------------------|x2

e--------------------------------|
b--------------------------------|
g----9-9-7-7-------7-7-5-5-------|
d-----------9-9-----------7-7----|
a-7-7-----------5-5--------------|
e--------------------------------|

e----------------------|
b----------------------|
g----------------------|
d----7-7-5-5-----------|
a-----------7-7--------|
e-5-5------------------|x2

thats the whole song its realy easy and you can solo on an  A minor pentatonic scale which is...

e----------------5-8--|
b-------------5-8-----|
g----------5-7--------|
d-------5-7-----------|
a----5-7--------------|
e-5-8-----------------|
 ... enjoy!!
Related for Got To Hurry tab