Song name
# A B C D E F G H I J K L M N O P Q R S T U V W X Y Z

Eric Clapton - Outside Woman Blues tab

The 8s0 is just slid all the way down the neck very quickly, you don't       ----7s0
    6s0
    7s0
have to hear the open notes ring out. Just slide it down quick.

E-------------------------------|
B------8s0----------------------|
G------7s0----------------------|
D------6s0----------------------|     6x
A------7s0-------2-----0--------|
E-0-0-------2h4---0h2-----------|

E------------------------------------|
B------------------------------------|
G------------------------------------|
D------5-7-7b-7-5---5b------2------0-|
A--5s7------------7----7-2h4---0h2---|
E------------------------------------|

E-------------------------------|
B------8s0----------------------|
G------7s0----------------------|
D------6s0----------------------|     2x
A------7s0-------2-----0--------|
E-0-0-------2h4---0h2-----------|

E--------------------------------------|
B--------------------------------------|
G--------------------------------------|
D------5-7-7b-7-5---5b-------2-----0---|
A--5s7------------7----7--2h4---0h2----|
E--------------------------------------|

Strum The B7 Chord For 4 Beats

E--------------------------------------|
B--------------------------------------|
G--------------------------------------|
D------5-7-7b-7-5---5b-------2------0--|
A--5s7------------7----7--2h4---0h2----|
E--------------------------------------|

E-------------------------------|
B------8s0----------------------|
G------7s0----------------------|
D------6s0----------------------|     2x
A------7s0-------2------0-------|
E-0-0-------2h4---0h2-----------|

E--------------------------------------|
B--------------------------------------|
G--------------------------------------|
D------5-7-7b-7-5---5b-------2------0--|
A--5s7------------7----7--2h4---0h2----|
E--------------------------------------|

E-------------------------------|
B------8s0----------------------|
G------7s0----------------------|
D------6s0----------------------|     2x
A------7s0-------2------0-------|
E-0-0-------2h4---0h2-----------|

E--------------------------------------|
B--------------------------------------|
G--------------------------------------|
D------5-7-7b-7-5---5b-------2------0--|
A--5s7------------7----7--2h4---0h2----|
E--------------------------------------|

Strum The B7 Chord For 4 Beats

E--------------------------------------|
B--------------------------------------|
G--------------------------------------|
D------5-7-7b-7-5---5b-------2------0--|
A--5s7------------7----7--2h4---0h2----|
E--------------------------------------|

E-------------------------------|
B------8s0----------------------|
G------7s0----------------------|
D------6s0----------------------|     2x
A------7s0-------2------0-------|
E-0-0-------2h4---0h2-----------|

E---------------------------------------------|
B------8-10-10b-10-8---8b---------------------|
G--7s9---------------9----9-------------------|
D---------------------------------------------|
A-----------------------------------2-----0---|
E------------------------------2h4---0h2------|

E-------------------------------|
B------8s0----------------------|
G------7s0----------------------|
D------6s0----------------------|     2x
A------7s0-------2------0-------|
E-0-0-------2h4---0h2-----------|

E-----------------------------------------|
B------8-10-10b-10-8---8b-----------------|
G--7s9---------------9----9---------------|
D-----------------------------------------|
A------------------------------2------0---|
E-------------------------2h4---0h2-------|

B7 Chord 4 Beats

E----                   ----------------------------------------|
B---5                   --3h5p3-0-------------------------------|
G---4                   -----------2p0--------------------------|
D---5                   ---------------2------------------------|
A---4                   ----------------------------------------|
E----                   ----------------------------------------|

E----------------------------------------|
B----------------------------------------|
G----------------------------------------|
D------5-7-7b-7-5---5b---------2------0--|
A--5s7--------------7----7--2h4---0h2----|

E-------------------------------------|
E-------------------------------------|
B------8s0----------------------------|
G------7s0----------------------------|
D------6s0----------------------------|     2x
A------7s0-------2------0-------------|
E-0-0-------2h4---0h2-----------------|

E--------------------------------------|
B--------------------------------------|
G--------------------------------------|
D------5-7-7b-7-5---5b-------2------0--|
A--5s7------------7----7--2h4---0h2----|
E--------------------------------------|

E-------------------------------------|
E-------------------------------------|
B------8s0----------------------------|
G------7s0----------------------------|
D------6s0----------------------------|     2x
A------7s0-------2------0-------------|
E-0-0-------2h4---0h2-----------------|

E--------------------------------------|
B--------------------------------------|
G--------------------------------------|
D------5-7-7b-7-5---5b-------2------0--|
A--5s7------------7----7--2h4---0h2----|
E--------------------------------------|

B7 Chord 7 beats

E Chord single strum
Tap to rate this tab
 
# A B C D E F G H I J K L M N O P Q R S T U V W X Y Z