Song name
# A B C D E F G H I J K L M N O P Q R S T U V W X Y Z

Eric Clapton - Crossroads tab

ERIC CLAPTON CROSSROADS TAB (LIVE AT CROSSROADS GUITAR FESTIVAL, 2010)

Intro riff (awesome)

e-----------------------------------------------------------------------
B-----------------------------------------------------------------------
G-0h2---p0.-------------------------------------------------------------
D-------------0h1p0-----------------------------------------------------
A-------------------3-0-------------------------------------------------
E----------------------------3'-----------------------------------------


e-----------------------------------------------------------------------
B-----------------------------------------------------------------------
G-----2--------2--------------------------2--------2--------------------
D-----2--------2-----0-2~---0h1p0---------2--------2-----0-2---0h1p0----
A-0-------------------------------3---0------------------------------3--
E---------3.----------------------------------3.------------------------


e-----------------------------------------------------------------------
B-----------------------------------------------------------------------
G-----2--------2-------------------------2.-------5.-------7------------
D-----2--------2-----0-2---0h1p0-----2---2.---5---5.---7---7---5--------
A-0------------------------------3---0--------3--------5-------3--------
E---------3.------------------------------------------------------------


e-----------------------------------------------------------------------
B-----------------------------------------------------------------------
G-----2--------2--------------------------2--------2--------------------
D-----2--------2-----0-2~---0h1p0---------2--------2-----0-2---0h1p0----
A-0-------------------------------3---0------------------------------3--
E---------3.----------------------------------3.------------------------


e-----------------------------------------------------------------------
B-----------------------------------------------------------------------
G-----2--------2------------------------5------7------5---/-------------
D-----2--------2-----0-2---0h1p0--------5------7------5---/-------------
A-0------------------------------3---0.-3---5.-5---3.-3---/-------------
E---------3.------------------------------------------------------------


Intro solo by 0:23

e-----------------------------------------------------------------------
B-15(17)-----------------------------------13--------------13.----------
G---------------------------------------------14-14~--------------------
D-----------------------------------------------------------------------
A-----------------------------------------------------------------------
E-----------------------------------------------------------------------


e-----------------------------------------------------------------------
B-------13----15----13'-------------------------------------------------
G-12h14----14----14---------14-12---------------------------------------
D---------------------------------14\12p10------10'---------------------
A------------------------------------------12-x-------12-\--------------
E-----------------------------------------------------------------------


e-------------------------5-------7---.---7p5------5--------------------
B-----------------------5---5-8-5-------------8.-----8p5.---5---------8-
G----------7---5-7(9)-------------------------------------------7/9-----
D------5h7---7----------------------------------------------------------
A-/7--------------------------------------------------------------------
E-----------------------------------------------------------------------


e-----------------------------------------------------------------------
B-----------------------------------------------------------------------
G-9.---7-5-----5--------------------------------------------------------
D----------7p5---7-7~---5-----///-\\\-----------------------------------
A-------------------------0---------------------------------------------
E-----------------------------------------------------------------------


e-----------------------------------------------------------------------
B------8-----5-7--------------------------------------------------------
G-5.-----------------5---7p5---5'---------------------------------------
D----------------------7-----7------7-5---------------------------------
A---------------------------------------7\5p3---3'----------------------
E---------------------------------------------5------///-\\\------------


Solo by 1:39

e-----------------------------------------------------------------------
B-17(20)--------------------17.---15.-----------------------------------
G---------------------------------------17'-----14.---14~---------------
D-------------------------------------------------------------17-14.----
A-----------------------------------------------------------------------
E-----------------------------------------------------------------------


e--------------------------------------------------------5-----7--------
B------------------------------------------------------5---8p5----------
G-------14----14.---14~-------17'-------///-\\\---/6--------------------
D-14h16----16-----x-------x-x-------------------------------------------
A-----------------------------------------------------------------------
E-----------------------------------------------------------------------


e-5.--------------------------------------------------------------------
B------8p5---5-----8-8-8------------------------------------------------
G----------7---7/9-------9\7p5-----5------------------------------------
D------------------------------7p5---7~------------------------------
A-----------------------------------------------------------------------
E-----------------------------------------------------------------------


e-----------------------------------------------------------------------
B---8.---7p5------------------------------------------------------------
G-5----------7p5------5'-----------------2--------2---2-0---------------
D----------------7.--------7-5-----------2--------2-------2---0h1p0-----
A------------------------------7\5p3-0-------0.---------------------3---
E-----------------------------------------------------------------------


e-----------------------------------------------------------------------
B-----------------------------------------------------------------------
G-----2----------------12----12-14~-----12(13)--12(13)------------------
D-----2--------/14--------14----------------------------14-12----14-----
A-0-------0.--------------------------------------------------14----14--
E-----------------------------------------------------------------------


e-----------------------------------------------------------------------
B-----------------------------------------------------------------------
G-----------------------------------------------------------------------
D-12--------------------------------------------------------------------
A----14\12p10-12-10-\\\-------------------------------------------------
E-------------------------///---------------------------------------


e-----------------------------------------------------------------------
B-15(17)-----13-------13'-----15p13'------------------------------------
G---------------14~--------------------14.------------------------------
D-----------------------------------------------------------------------
A-----------------------------------------------------------------------
E-----------------------------------------------------------------------


e-----------------------------------------------------------------------
B-------13~---13~------------------------13-----------------------------
G-12h14-------------14-12----14----12-14----14p12-14p12-----------------
D-------------------------14----14--------------------------------------
A-----------------------------------------------------------------------
E-----------------------------------------------------------------------


e---------15-15-15-15----15-15-15-----15-15-15-----15-15-15-----15-15-15
B-15/17--------------/17----------/17----------/17----------/17---------
G-----------------------------------------------------------------------
D-----------------------------------------------------------------------
A-----------------------------------------------------------------------
E-----------------------------------------------------------------------


e-------17-17-17-----17-17-17-----17-17-17-20'-----17~------------------
B-17/19----------/19----------/19---------------------------------------
G-----------------------------------------------------------------------
D-----------------------------------------------------------------------
A-----------------------------------------------------------------------
E-----------------------------------------------------------------------


e------------------------------------------------------------------5----
B-20-17--------------------------------8p5-----------------------5---8p5
G-------19-17----17~---\\\---///-----------7p5-5~------------5h6--------
D-------------19------------------------------------7p5-7~--------------
A-----------------------------------------------------------------------
E-----------------------------------------------------------------------


e-8'-----5---8'-----5---5-8-5h8p5---5-----------------------------------
B----------5----------5-----------8---8-5---5-------8-8-8---------------
G-----------------------------------------7---7/9---------9\7p5---------
D---------------------------------------------------------------7p5-7~--
A-----------------------------------------------------------------------
E-----------------------------------------------------------------------


e-------5---------------------------------------------------------------
B-----5---8.---7.---5.--------------------------------------------------
G-5h6--------------------7p5---5h6-------------------------2---2--------
D----------------------------7-----7-----------------------2---2--------
A------------------------------------7-7\5---3h4---0--------------------
E-----------------------------------------------------------------------


e-----------------------------------------------------------------------
B-----------------------------------------------------------------------
G-----0---0-------0-----------------------------------------------------
D-0h2---------0h2-----0h2p0-----2-----------------7-------10'-----7-----
A---------------------------3-------5-/-7---7/9-------9-------------0---
E-----------------------------------------------------------------------


e-5-------5-5-------5---------------------0-----------------------------
B-----------------------------------------0-----------------------------
G-----------------------------------0h1-----------------///-\\\---------
D-5---5-----4---4---3---3---2-------------------------------------------
A-----------------------------------------------------------------------
E-------------------------------0---------------------------------------
Tap to rate this tab
 
# A B C D E F G H I J K L M N O P Q R S T U V W X Y Z