Song name
# A B C D E F G H I J K L M N O P Q R S T U V W X Y Z

Eric Clapton - Crackin Corn Cobs tab

---3-------7-----------3------2----2--3------0--|
---4------------8--------4----0--------------1--|
---5----9-----------9---------4--------5-----2--|
------------------------------------------------|
------------------------------------------------|
------------------------------------------------|

-----3-----------5-------6---------0---9------2-|
-----12---4---------------------------0----3----|
------------------6-----------7--------0--------|
-------------------------------9-------2--------|
---------------------------9--------------------|
------------------------------------------------|
Tap to rate this tab
# A B C D E F G H I J K L M N O P Q R S T U V W X Y Z