Song name
# A B C D E F G H I J K L M N O P Q R S T U V W X Y Z

Eric Clapton - Hand Jive tab

   Hand Jive
   Eric Clapton
   Tabbed by Michael

intro

e---(3)-/5--x--5--x-x-x--5----------|
b---(3)-/5--x--5--x-x-x--5----------|
g---(4)-/6--x--6--x-x-x--6----------|
d---(5)-/7--x--7--x-x-x--7----------|
a-----------------------------------|
E-----------------------------------|


e--3-/5--x--5--x-x-x--5--5-/10--x--10--x-x-x--10-------------------|
b--3-/5--x--5--x-x-x--5--5-/10--x--10--x-x-x--10-------------------|
g--4-/6--x--6--x-x-x--6--6-/11--x--11--x-x-x--11-------------------|
d--5-/7--x--7--x-x-x--7--7-/12--x--12--x-x-x--12-------------------|
a------------------------------------------------------------------|
E------------------------------------------------------------------|

  filler
e-----------------------------|
b---7-/7--x--7--x-x-x--7------|
g---7-/7--x--7--x-x-x--7------|
d---7-/7--x--7--x-x-x--7------|
a---5-/9--x--9--x-x-x--9------|
E-----------------------------|


    all verses are the same chords

A
I know a cat named Way-Out Willie,
         D                         A
He's got a cool little chick named Rickin Millie,
      D
He can walk and and stroll and Susie Q,
       A
And do that crazy hand jive, too.
Tap to rate this tab
 
# A B C D E F G H I J K L M N O P Q R S T U V W X Y Z