Song name
# A B C D E F G H I J K L M N O P Q R S T U V W X Y Z

Eric Clapton - Nobody Knows You When Your Down And Out tab

This is the perfect tab for this solo!!!!others are nearly there but have an odd part
that is confusing and slightly out. To get it right you'll have to listen to the song
for the timing but trust me, follow this tab and once youve got the timing it'l be
perfect.  Great solo!Feedback would be good so e-mail me. Enjoy, Dave Cripps.

KEY
h = Hammer on (e.g. 8h10 - play the string with the finger on the 8th fret and then
place another finger on the 10th fret while the note is still ringing)

p = Pull off (e.g. 8p10 - same as a hammer on but once the second finger is on the
10th fret, pull it off straight away.  Adds an extra note to the sequence compared
to a hammer on)

/ = Slide (e.g. 8/10 - play the string with the finger on the 8th fret and slide
the finger along to the 10th fret straight away)

-------------------------------------------------------------------------|
-----------------8-10-10---10-8p10----------------5h6-6h5----------------|
-----------5-7/9-------------------9-7-5---5h6------------7h5-7----------|
-------5-7-------------------------------7-----7----------------7/5-3-5--|
-3-3/7-------------------------------------------------------------------|
-------------------------------------------------------------------------|

--------------------------------------------------------------------5------|
----------------------------------------------------------8-8-8-7-6-5------|
----------------------------------------------------------9-9-9-8-7--------|
-3-------------10-12-10-12-13-10-12-10----10-13p12h10------------------5/7-|
---5-3-4-5--12-------------------------12-------------12-------------------|
---------------------------------------------------------------------------|

------------------------------------------------------------------------------|
-7---7h8-8/10----10-------12-13-14-15h16-16-15--------------------------------|
------------------------------------------------------------------------------|
---7----------10----10/12-----------------------------------------------------|
------------------------------------------------------------------------------|
------------------------------------------------------------------------------|
Tap to rate this tab
# A B C D E F G H I J K L M N O P Q R S T U V W X Y Z