Song name
# A B C D E F G H I J K L M N O P Q R S T U V W X Y Z

Eric Clapton - If I Had Possession Over Judgment Day tab

                "If I Had Possession Over Judgment Day"
                  (Robert Johnson, arr. Eric Clapton)

Intro/Verse:

	Guitar 1 (w/ slide)                       1.       x2
                                                 ________________
                                                 |               |
	--0-s5---5---5--5|0-5-5--0--3-0----|-----------------|--------------|
	--0-s5---5---5--5|--5-5----------3-|s2s0----3----0-s3|-0------------|
	-----------------|-----------------|------0-3----0-s3|-0------------|
	-----------------|-----------------|-----------3-----|--------------|
	-----------------|-----------------|-----------------|--------------|
	-----------------|-----------------|-----------------|--------------|


	Guitar 1:

	-----------------|-----------------|-----------------|
	-----------------|-----------------|-----------------|
	-----------------|-----------------|--Play riff 1.---|
	-----------------|-----------------|-----------------|
	---0-0-s7--7--7--|s0-s5--5--s3-0s3-|-----------------|
	-----------------|-----------------|-----------------|
Tap to rate this tab
 
# A B C D E F G H I J K L M N O P Q R S T U V W X Y Z