Song name
# A B C D E F G H I J K L M N O P Q R S T U V W X Y Z

Eric Clapton - Nobody Knows You When Youre Donw And Out tab

Help us improve GuitareTab! Take a short survey!

tabbed by:Maison

e|------------0------------0-----------3-3---3-----------1------|
B|----------1---1--------0---0---------2-2-----2-------3---3----|
G|--------0-------0----1-------1-----2-----2-----2----2-------2-|
D|--------------------------------------------------0-----------|
A|------3------------2-------------0----------------------------|
E|--------------------------------------------------------------|

e|---------0------------1------------------1-------------2-------|
B|-------2---2--------3---3--------------1---1---------2---2-----|
G|-----0-------0----2-------2----------2-------2-----3-------3---|
D|----------------0------------0-1-2-3-----------3-4-------------|
A|---0-----------------------------------------------------------|
E|---------------------------------------------------------------|

e|-----------------3-3---3----------2-2---2-----------1-1---1-----|
B|-----------------2-2-----2--------1-1-----1---------0-0-----0---|
G|---------------2-----2-----2----2-----2-----2-----0-----0-----0-|
D|------------------------------0---------------------------------|
A|----3-3--2-1-0--------------------------------------------------|
E|------------------------------------------------3---------------|

then you play it over and over again
Related for Nobody Knows You When Youre Donw And Out tab