Song name
# A B C D E F G H I J K L M N O P Q R S T U V W X Y Z

Eric Gales - Insane tab

			Main RIFF: REPEAT as many times needed
|---------------------------------------------------------------------------|
|---------------------------------------------------------------------------|
|---------------------------------------------------------------------------|
|---------------------------------------------------------------------------|
|-8--8--8--7--7--7---7--7-------7--7--7--5--5--5----------------------------|
|-7--7--7--7--7--7---7--7--X2---5--5--5--5--5--5--X2------------------------|
PM..........................................................................

Synth fill part
|---------------------------------------------------------------------------|
|---------------------------------------------------------------------------|
|---------------------------------------------------------------------------|
|---------------------------------------------------------------------------|
|---12------14-15--12-------------------------------------------------------|
|---------------------------------------------------------------------------|

Chord after synth fill.  Really listen to this part for the strumming and its just
one chord
|---------------------------------------------------------------------------|
|--5------------------------------------------------------------------------|
|--7------------------------------------------------------------------------|
|--7------------------------------------------------------------------------|
|--5------------------------------------------------------------------------|
|---------------------------------------------------------------------------|


1:42          SOLO
|-------------/8-8\7-7--7/10\-------------------------8-8-7-7--7/10\---------|
|--5----5---5----------------------5h6-6-6-6-8-10----------------------------|
|----------------------------------------------------------------------------|
|----------------------------------------------------------------------------|
|----------------------------------------------------------------------------|
|----------------------------------------------------------------------------|

|----------------/10--12-12-13-13--12--8--8-8-/10-10\----10\----------------|
|--5h6--6--6-6-------------------------------------------------5-6-6-6------|
|---------------------------------------------------------------------------|
|---------------------------------------------------------------------------|
|---------------------------------------------------------------------------|
|---------------------------------------------------------------------------|


End solo
e|--------------------------------------------------------------------------|
B|-6--6-6-6-6---------------------------------------------------------------|
G|--------------------------------------------------------------------------|
D|--------------------------------------------------------------------------|
A|--------------------------------------------------------------------------|
E|--------------------------------------------------------------------------|


2:12   Back to the riff
e|--------------------------------------------------------------------------|
B|--------------------------------------------------------------------------|
G|--------------------------------------------------------------------------|
D|--------------------------------------------------------------------------|
A|-8--8--8--7--7--7---7--7-------7--7--7--5--5--5---------------------------|
D|-7--7--7--7--7--7---7--7--X2---5--5--5--5--5--5--X2-----------------------|
PM..........................................................................
Tap to rate this tab
 
# A B C D E F G H I J K L M N O P Q R S T U V W X Y Z