Song name
# A B C D E F G H I J K L M N O P Q R S T U V W X Y Z

Eric Holljes - Worst Of All tab

                        Worst of all                                   


                        Eric Holljes
(Capo 2)

Not 100% correct, but playable :-)

/beachmountain@hotmail.com


E||---3-----------------------|--------------3-----------|
B||-----0---3-----5-----3-----|--3-----3-------0---3-----|
G||*------0---0-----0-----0---|----0-----0-------0---0---|
D||*--2---------0-----0-----0-|------0-----0-2---------0-|
A||---------2-----3-----2-----|--------------------2-----|
E||---------------------------|--------------------------|


--------------------------|--3-----------------------|
--5-----7-----7-----7-----|----0---3-----5-----3-----|
----0-----0-----0-----0---|------0---0-----0-----0---|
------0-----0-----0-----0-|--2---------0-----0-----0-|
--3-----5-----------------|--------2-----3-----2-----|
--------------------------|--------------------------|

                                                      3x
--------------------------|---------------------------||
--3-----3-----2-----2-----|--1-----1-----1-----1------||
----0-----0-----0-----0---|----0-----0-----0-----0---*||
------0-----0-------------|------2-----2-----2-----2-*||
--------------0---0-----0-|--3------------------------||
--------------------------|---------------------------||


                                                       4x
---------------------------|---------------------------||
---------3-----------3-----|--------0-----------0------||
*----2-----2-----0-----0---|----5-----5-----4-----4---*||
*------0-----0-----0-----0-|------0-----0-----0-----0-*||
---0-----------------------|---------------------------||
---------------3-----------|--5-----------3------------||

  
--------------------------|----2---3-----2------|--3-----------------------|
--------------------------|----------3---3------|----0---3-----5-----3-----|
----5-----4-----2-----0---|------------2--------|------0---0-----0-----0---|
------0-----0-----0-----0-|------0--------------|--2---------0-----0-----0-|
--------------------------|--0------------------|--------2-----3-----2-----|
--5-----3-----2-----0-----|---------------------|--------------------------|

  
--------------3-----------|--------------------------|
--3-----3-------0---3-----|--5-----7-----7-----7-----|
----0-----0-------0---0---|----0-----0-----0-----7---|
------0-----0-2---------0-|------0-----0-----0-----0-|
--------------------2-----|--3-----5-----------------|
--------------------------|--------------------------|


--0-----0-----0-----------|--------------------------|
----7-----5-----3---3-----|--3-----3-----2-----2-----|
------0-----0-----0---0---|----0-----0-----0-----0---|
--5-----4-----2---------0-|------0-----0-------------|
--------------------2-----|--------------0---0-----0-|
--------------------------|--------------------------|

  
--------------------------||---3-----------------------|
--1-----1-----1-----1-----||-----0---3-----5-----3-----|
----0-----0-----0-----0---||*------0---0-----0-----0---|
------2-----2-----2-----2-||*--2---------0-----0-----0-|
--3-----------------------||---------2-----3-----2-----|
--------------------------||---------------------------|

  
--------------3-----------|--------------------------|
--3-----3-------0---3-----|--5-----7-----7-----7-----|
----0-----0-------0---0---|----0-----0-----0-----0---|
------0-----0-2---------0-|------0-----0-----0-----0-|
--------------------2-----|--3-----5-----------------|
--------------------------|--------------------------|

  
--3-----------------------|--------------------------|
----0---3-----5-----3-----|--3-----3-----2-----2-----|
------0---0-----0-----0---|----0-----0-----0-----0---|
--2---------0-----0-----0-|------0-----0-------------|
--------2-----3-----2-----|--------------0---0-----0-|
--------------------------|--------------------------|

 
---------------------------||---------------------------|
--1-----1-----1-----1------||---------3-----------3-----|
----0-----0-----0-----0---*||*----2-----2-----0-----0---|
------2-----2-----2-----2-*||*------0-----0-----0-----0-|
--3------------------------||---0-----------------------|
---------------------------||---------------3-----------|

---------------------------||--------------------------|----2---3-----------|
--------0-----------0------||--------------------------|----------3---------|
----5-----5-----4-----4---*||----5-----4-----2-----0---|------------2-------|
------0-----0-----0-----0-*||------0-----0-----0-----0-|------0-------0-----|
---------------------------||--------------------------|--0-----------------|
--5-----------3------------||--5-----3-----2-----0-----|--------------------|      



|---------------------------||--3-----3-----5-----5-----|--7-----7-----7----|
|-------1-----1-----3-3-----||----0-----0-----0-----0---|----0-----0--------|
|*----0-----0-----2------2-*||------0-----0-----0-----0-|------0-----0------|
|*-------------------------*||--2-----2-----4-----4-----|--5-----5----------|
|---3-----2-----0-----------||--------------------------|-------------------|
|---------------------------||--------------------------|-------------------|

   
|---------0-----------0-----|--------0-----------0------||
|-------3---3-------3---3---|------3---3-------3---3----||
|*----0-------0---0-------0-|----0-------0---0-------0-*||
|*--------------------------|--------------------------*||
|---0-----------------------|--2-----------0------------||
|---------------3-----------|---------------------------||

  
--------0h-2p-0-----------0-----|--------0-----------0-----|
------3---------3-------3---3---|------3---3-------3---3---|
----0-------------0---0-------0-|----0-------0---0-------0-|
--------------------------------|--------------------------|
--0-----------------------------|--2-----------0-----------|
--------------------3-----------|--------------------------|

  
--------0h-2p-0-----------0-----|--------0-------------|
------3---------3-------3---3---|------3---3-----------|
----0-------------0---0-------0-|----0-------0---------|
--------------------------------|----------------------|
--0-----------------------------|--2-----------0-------|
--------------------3-----------|----------------------|

 
--3-----------------------|--------------3-----------|
----0---3-----5-----3-----|--3-----3-------0---3-----|
------0---0-----0-----0---|----0-----0-------0---0---|
--2---------0-----0-----0-|------0-----0-2---------0-|
--------2-----3-----2-----|--------------------2-----|
--------------------------|--------------------------|

 
--------------------------|--3-----------------------|
--5-----7-----7-----7-----|----0---3-----5-----3-----|
----0-----0-----0-----0---|------0---0-----0-----0---|
------0-----0-----0-----0-|--2---------0-----0-----0-|
--3-----5-----------------|--------2-----3-----2-----|
--------------------------|--------------------------|


              Slow down                                            
----------------------------------|-----------------------------|
--3-----3-----2-------------2-----|--1-----3-----0h-1-----3-----|
----0-----0-------------0-----0---|----0-----0--------0-----0---|
------0-----0---------------------|------2-----2--------2-----2-|
--------------0-----------0-----0-|--3--------------------------|
----------------------------------|-----------------------------|

   
----------------------||
----------------------||
--------0-------------||
------0---------------||
----2-----------------||
--3-------------------||
Tap to rate this tab
 
# A B C D E F G H I J K L M N O P Q R S T U V W X Y Z