Song name
# A B C D E F G H I J K L M N O P Q R S T U V W X Y Z

Eric Johnson - Soulful Terrain tab

----------------------------------------------------------------------------
			     SOULFUL TERRAIN - Eric Johnson
----------------------------------------------------------------------------
Tabbed by: Homie12345
Email:

Tuning: Standard

Intro
e|--------------------------------------------------------------------------|
B|--21-21-19-19-18-18-------19-19-18-18-------------------------------------|
G|--------------------18-18-------------18-18-------------------------------|
D|--------------------------------------------18-20-------------------------|
A|--------------------------------------------------------------------------|
E|--------------------------------------------------------------------------|

e|--------------------------------------------------------------------------|
B|-------23-21-21-19-19-18-18-------19-19-18-18-----------------------------|
G|----------------------------18-18-------------18----22-20-----------------|
D|-18-20-------------------------------------------20-----------------------|
A|--------------------------------------------------------------------------|
E|--------------------------------------------------------------------------|

e|--------------------------------------------------------------------------|
B|-21-21-19-19-18-18-------21-21-18-18--------------------------------------|
G|-------------------18-18-------------18-18--------------------------------|
D|-------------------------------------------18-20--------------------------|
A|--------------------------------------------------------------------------|
E|--------------------------------------------------------------------------|

e|--------------------------------------------------------------------------|
B|-------23-21-21-19-19-18-18-------19-19-18-18-----------------------------|
G|----------------------------18-18-------------18----22-20-----------------|
D|-18-20-------------------------------------------20-----------------------|
A|--------------------------------------------------------------------------|
E|--------------------------------------------------------------------------|

This is all I have so far. I'll get back to you when its finished.
I'm sorry its not very accurate, but this is my first time ever tabbing something.

| /  slide up
| \  slide down
| h  hammer-on
| p  pull-off
| ~  vibrato
| +  harmonic
| x  Mute note
============================================================================
Tap to rate this tab
 
# A B C D E F G H I J K L M N O P Q R S T U V W X Y Z