Song name
# A B C D E F G H I J K L M N O P Q R S T U V W X Y Z

Eric Johnson - High Landrons tab

Figured this out a few days ago, hopefully someone can tab out the entire song.
I think this is very close to the way Eric does it.

E-6--------------------------14-------------------------------------------|
B----7--9-----14b---------14-----14b--------14b----------12h14p12---------|
G-6----------------13--16-------------13-16-----16--13------------15---13-|
D----8---------------------------------------------------------------16---|
A-4--6--11----------------------------------------------------------------|
E-------11----------------------------------------------------------------|

E-16b-16b-16b----16----------16p14----14----------------------------------|
B------------------19p16-----------16--------14-12------------------------|
G------------------------18b-----------------------13-11------------------|
D--------------------------------------------------------11p9-------------|
A-------------------------------------------------------------11---9h11p9-|
E-------------------------------------------------------------------------|
Tap to rate this tab
 
# A B C D E F G H I J K L M N O P Q R S T U V W X Y Z