Song name
# A B C D E F G H I J K L M N O P Q R S T U V W X Y Z

Eric Johnson - Winter Came tab

(/) Slide Up  (\) Slide Down  (h) Hammer On  (p) Pull Off  (b) Bend (r) Release (v) Vibrato

Intro to Eric Johnson's "Winter Came" off of his 1978 album Seven Worlds

Tabbed by Ravelle X (Youtube:Xzen2)

E|--------------------------------------------20-------|
B|--------------------------------------18-21----18----|
G|------------------0---4-7----------17----------------|
D|----------------3---6-----------18-------------------|
A|----------2-5-3--------------20----------------------|
E|--1---3-4-----------------20-------------------------|



E|----------------------------------------------------|
B|------13--------------------------------------------|
G|---------12b13----10-12-12b13-12-10-12-10-----------|
D|--/10-------------------------------------10--------|
A|----------------------------------------------------|
E|----------------------------------------------------|



E|----------------------------------------------------|
B|-----------------------------8 -9-10--9b10----------|
G|--15b17-13-12b13-----------9---------------11-9b11--|
D|------------------------10--------------------------|
A|------------------10-11-----------------------------|
E|----------------------------------------------------|



E|--------------14------------------------------------|
B|-----14-------14------------------------------------|
G|--------13b14--------11-13b14-11-13-11--------------|
D|--11---------------11------------------11-----------|
A|----------------------------------------------------|
E|----------------------------------------------------|




E|-----------------------------------------------------|
B|--------------------------------------14-16-16b18-14-|
G|--16b18-14-13b14-------------------14----------------|
D|--------------------------11-13-14-------------------|
A|-----------------------12----------------------------|
E|-----------------11-12-------------------------------|


                              Harmonics(Bar notes in "()")
                                      Tap Octave
                                ___________|__________
                                |                    |
E|----------------------------------------------(2)14-|
B|--16b18-16b18-16h18------------------------(2)14----|
G|--------------------13b14-11------(1)13-(2)14-------|
D|-------------------------------(4)16----------------|
A|----------------------------------------------------|
E|----------------------------------------------------|
Tap to rate this tab
# A B C D E F G H I J K L M N O P Q R S T U V W X Y Z