Song name
# A B C D E F G H I J K L M N O P Q R S T U V W X Y Z

Eric Johnson - Gem tab

Song: GEM
Eric Johnson
Up Close

     0:13
--------------------------------14----------------|
------------10~-----------10-14----12~------------|
-----------------------11-------------------------|
--------/11---------------------------------------|
----9---------------12----------------------------|
-----------------10-------------------------------|

                                  ~~~~~
--------------7~----------------------------------|
---------9/10-----------10---12b14=====r12--------|
----------------------7---------------------------|
------9-------------------------------------------|
----7---------------9-----------------------------|
-----------------/7-------------------------------|


--------------------------------12----------------|
------------10~-----------10-14----12~------------|
-----------------------11-------------------------|
--------/11---------------------------------------|
--7-9---------------12----------------------------|
-----------------10-------------------------------|


--------------7~-----------7h9--------------------|
---------9/10-----------10------12b14===r12\-10---|
----------------------7---------------------------|
------9-------------------------------------------|
----7---------------9-----------------------------|
-----------------\7-------------------------------|


-----------12~------------------------------------|
------9h10----------9-10~---9b10------------------|
---------------------------------9----------------|
------------------9----------------9~-------------|
----------------7---------------------------------|
--------------------------------------------------|


-----------------------------------------/14h15p14---------------------------|
---------------------------------/14~---------------17~-----12b14===14r12h10-|
-2-4-2-4/6--/9--9h11~---11/14~----------------------------9------------------|
-----------------------------------------------------------------------------|
-----------------------------------------------------------------------------|
-----------------------------------------------------------------------------|


----------------------------12-------------------------------12-9--------------------|
----------10~----------/14----14~------------10/12-14~--10/9------10h9-9-9-----------|
---------------------7------------------------------------------------------9/11-----|
-----12h11---------------------------------11----------------------------------------|
-0----------------9---------------------/9-------------------------------------------|
----------------7--------------------------------------------------------------------|
                                                            0:50
----------------------------12-14~---10/12-14-----------------------12-9--------------------------|
-----------10~----------/14-------------------14-------------------------12h10h9------------------|
---------------------7---------------------------14/13---------9-11--------------9/11-13-11/13-14-|
-----12h11---------------------------------------------16~----------------------------------------|
-0----------------9-------------------------------------------------------------------------------|
----------------7---------------------------------------------------------------------------------|


0:53
---16---16-17---------------14----------------------------------------------------------|
-----------------17b19~--------17----17-14~----12---------------------------------------|
--------------18------------------16-----------------14-13b14---------------------------|
--------------------------------------------------16----------14-----------9/12-12/9----|
-----------------------------------------------------------------14~~---12--------------|
----------------------------------------------------------------------------------------|


0:58
--------------------------12-14~--/12-14---------------------|
---------10~~---------/14-----------------14-----------------|
-------------------7-------------------------14/13-------9-11|
---12h11-------------------------------------------16~~------|
-0--------------9--------------------------------------------|
--------------7----------------------------------------------|

-12-9-------------------------------------12~----|
------12h10h9-12b14====14r12h10-10--9h10---------|
-------------------------------------------------|
-------------------------------------------------|
-------------------------------------------------|
-------------------------------------------------|



                         1:09
----------------------------------------------|
-----9-10~---9b10-------------9h10p9----------|
------------------9------------------11h9-11--|
---9----------------9~-----11-----------------|
-7--------------------------------------------|
----------------------------------------------|

Technique harmonics EJ, who played with plectrum and finger (the 12th fret) of the note 
in the same time
TÚcnica de harmonicos de EJ, que se toca com palheta e o dedo indicador(no 12¬ traste) 
da respectiva nota ao mesmo tempo
----------------------------------------------------------14[26]-----------|
---------------------10[20]~-/---------------------14[26]--------12[24]~-/-|
--------------------------------------------11[23]-------------------------|
--------------11[23]-------------------------------------------------------|
--------9[21]------------------------12[24]--------------------------------|
------------------------------10[20]---------------------------------------|

---------------------------------------------------------------------------|
---------------------9[21]~--------------------10[20]--12[24]b14~----------|
-----------------------------------------7[19]-----------------------------|
--------------9[21]--------------------------------------------------------|
--------7[19]----------------------9[21]-----------------------------------|
-----------------------------7[19]-----------------------------------------|

----------------------------------------------------------14[26]-----------|
---------------------10[20]~-----------------------14[26]--------12[24]~-/-|
--------------------------------------------11[23]-------------------------|
--------------11[23]-------------------------------------------------------|
-7[19]-9[21]-------------------------12[24]--------------------------------|
------------------------------10[20]---------------------------------------|

---------------------------------------------------------------------|
--------------------9[21]~-------------------------------------------|
----------------------------------------------------------11-13-14---|
--------------9[21]------------------------------11/13-14------------|
--------7[19]-------------------11h12p11-9-11-14---------------------|
------------------------------9--------------------------------------|

                  1:23
--------12-14--|16~---16h17p16p14-16----14~--------|
--12/14--------|---------------------17------------|
---------------|-----------------------------------|
---------------|-----------------------------------|
---------------|-----------------------------------|
---------------|-----------------------------------|

1:26
---14------------------------------14-17-16-14-------|
------17-14------------------14-17-------------17----|
------------16-14------14-16-------------------------|
-------------------16--------------------------------|
-----------------------------------------------------|
-----------------------------------------------------|

---16-14------16-14-------------------------------|
---------(17)-------15-14-12----------------------|
-----------------------------14-13-11-------------|
--------------------------------------14-11-9-----|
----------------------------------------------12--|
--------------------------------------------------|



1:31

--------------------------------12----------------|
------------10~-----------10-14----12~------------|
-----------------------11-------------------------|
--------/11---------------------------------------|
----9---------------12----------------------------|
-----------------10-------------------------------|

--------------7------------7h9--------------------|
---------9/10-----------10------12b14===r12\-10---|
----------------------7---------------------------|
------9-------------------------------------------|
----7---------------9-----------------------------|
-----------------\7-------------------------------|


-----------12~------------------------------------|
------9h10----------9-10~---9b10------------------|
---------------------------------9----------------|
------------------9----------------9~-------------|
----------------7---------------------------------|
--------------------------------------------------|


-----------------------------------------/14h15p14---------------------------|
---------------------------------/14~---------------[17]/---12b14===14r12h10-|
-2-4-2-4/6--/9--9h11~---11/14~----------------------------9------------------|
-----------------------------------------------------------------------------|
-----------------------------------------------------------------------------|
-----------------------------------------------------------------------------|


----------------------------12-------------------------------12-9--------------------|
-----------10~----------/14----14~------------10/12-14~-10/9------10h9-9-9-----------|
---------------------7------------------------------------------------------9/11-----|
-----12h11---------------------------------11----------------------------------------|
-0----------------9---------------------/9-------------------------------------------|
----------------7--------------------------------------------------------------------|

----------------------------12-[14]~-10/12-14-----------------------12-9--------------------------|
-----------10~----------/14-------------------14-------------------------12h10h9------------------|
---------------------7---------------------------14/13---------9-11--------------9/11-13-11/13-14-|
-----12h11---------------------------------------------16~----------------------------------------|
-0----------------9-------------------------------------------------------------------------------|
----------------7---------------------------------------------------------------------------------|

---16~--16-17-------------14--------------------------------|
-----------------17b19~~-----17-14--------------------------|
--------------18-------------------16-14----------14-16/18--|
-----------------------------------------16-14-16-----------|
------------------------------------------------------------|
------------------------------------------------------------|

--------17-19-21-17----19-16---------------------------|
-17-19--------------19-------17----17------------------|
--------------------------------16----16----16---------|
-----------------------------------------18----18------|
--------------------------------------------------19-14|
-------------------------------------------------------|

----------------------------12-[14]~-10/12-14----------------|
-----------10~----------/14-------------------14-------------|
---------------------7---------------------------14/13-------|
-----12h11---------------------------------------------16~---|
-0----------------9------------------------------------------|
----------------7--------------------------------------------|

2:12
--5--7--|
--3--5--|
--x--x--|
--x--x--|
--5--7--|
--------|


semi clean guitar      2:19
-|----------------------------|-------7------------|
-|----------------------------|--------------------|
-|----------------------------|-6-7-6-9------------|
-|------------6-7--------7-9--|-------9------------|
-|------5-7-9--------7-9-----9|--------------------|
-|--5-7-----------------------|-------7------------|
                                    ^2
---------------|---------------------|----------7----------|
---------------|10-------------------|----------5----------|
-----------9-11|-----9-11----9-------|---------------------|
------9-11-----|----------11---9-11-9|------11-------------|
----9----------|---------------------|12--------7--12-11-9-|
---------------|---------------------|---12----------------|

--|----------------------------|------7------------|
--|----------------------------|-------------------|
--|----------------------------|6-7-6-9------------|
--|-----------6-7--------7-9---|------9------------|
--|-----5-7-9--------7-9-----9-|-------------------|
--|-5-7------------------------|------7------------|



--|-----------------|---------0--------------------|
--|-10---12---9--10-|--10-----x--------------------|
--|-7----9----x--x--|--7------9--------------------|
--|-0----x----9--11-|--0------9--------------------|
--|------12---7--9--|--0------7--------------------|
--|-----------------|---------0--------------------|
     2:39
--|------------------------------|
--|-10---10---10---9-------------|
--|-x----7----9----x-------------|
--|-11---0----7----9-------------|
--|-9---------0----7-------------|
--|------------------------------|

----------------------------------------------------|
------------------------------10----12p10-/14-12-10-|
----------------------9----11----11-----------------|
--/11\9-7---9-7--11-9---11--------------------------|
----------9-----------------------------------------|
----------------------------------------------------|


2:57
------------------------------------------------------------------------------------------|
----------------------------------------3\5-7~--5\7-10---7\10-12--------12\14-14\12-10----|
--4b6==r4-2-2-------4---2\4-6---4\6-9~-----------------------------7\9--------------------|
----------------2\4-----------------------------------------------------------------------|
------------------------------------------------------------------------------------------|
------------------------------------------------------------------------------------------|

----------------------------12-------------------------------12-9--------------------|
-----------10~----------/14----14~------------10/12-14~-10/9------10h9-9-9-----------|
---------------------7------------------------------------------------------9/11-----|
-----12h11---------------------------------11----------------------------------------|
-0----------------9---------------------/9-------------------------------------------|
----------------7--------------------------------------------------------------------|

----------------------------12-[14]~-10/12-14-----------------------12-9--------------------------|
-----------10~----------/14-------------------14-------------------------12h10h9------------------|
---------------------7---------------------------14/13---------9-11--------------9/11-13-11/13-14-|
-----12h11---------------------------------------------16~----------------------------------------|
-0----------------9-------------------------------------------------------------------------------|
----------------7---------------------------------------------------------------------------------|

---16~--16-17-------------14--------------------------------|
-----------------17b19~~-----17-14--------------------------|
--------------18-------------------16-14----------14-16/18--|
-----------------------------------------16-14-16-----------|
------------------------------------------------------------|
------------------------------------------------------------|

--------17-19-21-17----19-16---------------------------|
-17-19--------------19-------17----17------------------|
--------------------------------16----16----16---------|
-----------------------------------------18----18------|
--------------------------------------------------19-14|
-------------------------------------------------------|

--------------------------12-14~--/12-14---------------|
---------10~~---------/14-----------------14-----------|
-------------------7-------------------------14/13-----|
---12h11-------------------------------------------16~~|
-0--------------9--------------------------------------|
--------------7----------------------------------------|

-------12-9-------------------------------------12~----|
------------12h10h9-12b14====14r12h10-10--9h10---------|
--9-11-------------------------------------------------|
-------------------------------------------------------|
-------------------------------------------------------|
-------------------------------------------------------|

------------------------------------|
------9-10~---9b10------------------|
-------------------9----------------|
----9----------------9~-------------|
--7---------------------------------|
------------------------------------|

-----------------------------------------/14h15p14---------|
---------------------------------/14~---------------17~----|
--2-4--4/6--/9--9h11~---11/14~-----------------------------|
-----------------------------------------------------------|
-----------------------------------------------------------|
-----------------------------------------------------------|

-----------------------|
-------9h10p9----------|
--------------11-------|
----11-----------------|
-----------------------|
-----------------------|

--------------------------------14----------------|
------------10~-----------10-14----12~------------|
-----------------------11-------------------------|
--------/11---------------------------------------|
----9---------------12----------------------------|
-----------------10-------------------------------|
                                  ~~~~~
--------------7~----------------------------------|
---------9/10-----------10---12b14=====r12--------|
----------------------7---------------------------|
------9-------------------------------------------|
----7---------------9-----------------------------|
-----------------/7-------------------------------|

--------------------------------12----------------|
------------10~-----------10-14----12~------------|
-----------------------11-------------------------|
--------/11---------------------------------------|
----9---------------12----------------------------|
-----------------10-------------------------------|

--------------7~------|
---------9/10---------|
----------------------|
------9---------------|
----7-----------------|
----------------------|
Tap to rate this tab
# A B C D E F G H I J K L M N O P Q R S T U V W X Y Z