Song name
# A B C D E F G H I J K L M N O P Q R S T U V W X Y Z

Eric Lapointe - Marie-stone tab

                                  marie-stone                                   


                                                                   eric lapointe
rythm guit



      H        E.  S S S E     S E  H.           S    S E  H.           S  
D#||------------------------|----------------------|----------------------|
A#||------------------------|----------------------|----------------------|
F#||---------------------9--|--6-6-----------------|----------------------|
C#||---------------6-9-6-9--|--6-6-----------------|--6-6-----------------|
G#||---------------6-9-6-7--|--4-4-----------------|--6-6-----------------|
D#||---------------4-7-4----|----------------------|--4-4-----------------|


  S E  H.           S    S S Q    S S E.  S S S E     S E  H.           S  
----------------------|----------------------------|----------------------|
----------------------|----------------------------|----------------------|
----------------------|--9-9--------9-----------9--|--6-6-----------------|
--9-9-----------------|--9-9--------9-4---6-9-6-9--|--6-6-----------------|
--9-9-----------------|--7-7--------7-4---6-9-6-7--|--4-4-----------------|
--7-7-----------------|---------------2---4-7-4----|----------------------|


  S E  H.           S    S E  H.           S    S S Q    S S E.  S S S E   
----------------------|----------------------|----------------------------|
----------------------|----------------------|----------------------------|
----------------------|----------------------|--9-9--------9-----------9--|
--6-6-----------------|--9-9-----------------|--9-9--------9-4---6-9-6-9--|
--6-6-----------------|--9-9-----------------|--7-7--------7-4---6-9-6-7--|
--4-4-----------------|--7-7-----------------|---------------2---4-7-4----|


  S E  H.           S    S E  H.           S    S E  H.           S  
----------------------|----------------------|----------------------|
----------------------|----------------------|----------------------|
--6-6-----------------|----------------------|----------------------|
--6-6-----------------|--6-6-----------------|--9-9-----------------|
--4-4-----------------|--6-6-----------------|--9-9-----------------|
----------------------|--4-4-----------------|--7-7-----------------|


  S S Q    S S E.  S S S E     S E  H.           S    S E  H.           S  
----------------------------|----------------------|----------------------|
----------------------------|----------------------|----------------------|
--9-9--------9-----------9--|--6-6-----------------|----------------------|
--9-9--------9-4---6-9-6-9--|--6-6-----------------|--6-6-----------------|
--7-7--------7-4---6-9-6-7--|--4-4-----------------|--6-6-----------------|
---------------2---4-7-4----|----------------------|--4-4-----------------|


  S E  H.           S    E  E  E  H        E     S S S H.           S  
----------------------|-----------------------|-----------------------|
----------------------|-----------------------|-----------------------|
----------------------|-----------------------|-----------------------|
--9-9-----------------|--4--4-----4--------L--|--6-6---6------------L-|
--9-9-----------------|--4--4-----4--------L--|--6-6---6------------L-|
--7-7-----------------|--2--2-----2--------L--|--4-4---4------------L-|


  E  H.           E     E  H.           E     E  H.           E   
---------------------|---------------------|---------------------|
---------------------|---------------------|---------------------|
---------------------|--6--6------------L--|--4--4------------L--|
--4--4------------L--|--6--6------------L--|--4--4------------L--|
--4--4------------L--|--4--4------------L--|--2--2------------L--|
--2--2------------L--|---------------------|---------------------|


  H        H           Q    E.  E  E.  Q       Q    E.  E  E.  Q     
--------------------|-----------------------|-----------------------|
--------------------|-----------------------|-----------------------|
--8-----------------|--------------4---4----|--6----6---6--4---4----|
--8-----------------|--6----6---6--4---4----|--6----6---6--4---4----|
--6-----------------|--6----6---6--2---2----|--4----4---4--2---2----|
--------------------|--4----4---4-----------|-----------------------|


  Q    E.  E  E.  Q       Q    E.  E  E.  Q       Q    E.  E  E.  E  E   
-----------------------|-----------------------|------------------------|
-----------------------|-----------------------|------------------------|
--------------4---4----|--6----6---6--4---4----|--------------4---------|
--6----6---6--4---4----|--6----6---6--4---4----|--6----6---6--4---6--5--|
--6----6---6--2---2----|--4----4---4--2---2----|--6----6---6--2---6--5--|
--4----4---4-----------|-----------------------|--4----4---4------4--3--|


  Q    E.  E  E.  E  E     Q    E.  E  E.  E  E     Q    E.  E  E.  E  E   
------------------------|------------------------|------------------------|
------------------------|------------------------|------------------------|
--------------6---6-----|--------------4---------|--------------6---6-----|
--4----4---4--6---6--4--|--6----6---6--4---6--5--|--4----4---4--6---6--4--|
--4----4---4--4---4--4--|--6----6---6--2---6--5--|--4----4---4--4---4--4--|
--2----2---2---------2--|--4----4---4------4--3--|--2----2---2---------2--|


  Q    E.  E  E.  E  E     Q    E.  E  E.  E  E     Q    E.  E  E.  E  E   
------------------------|------------------------|------------------------|
------------------------|------------------------|------------------------|
--------------4---------|--------------6---6-----|--------------4---------|
--6----6---6--4---6--5--|--4----4---4--6---6--4--|--6----6---6--4---6--5--|
--6----6---6--2---6--5--|--4----4---4--4---4--4--|--6----6---6--2---6--5--|
--4----4---4------4--3--|--2----2---2---------2--|--4----4---4------4--3--|


  Q.     S H        S    H        E.  S S S E     S E  H.           S  
----------------------|------------------------|----------------------|
----------------------|------------------------|----------------------|
-----------6--------L-|---------------------9--|--6-6-----------------|
--4--------6--------L-|--6------------6-9-6-9--|--6-6-----------------|
--4--------4--------L-|--6------------6-9-6-7--|--4-4-----------------|
--2-------------------|--4------------4-7-4----|----------------------|


  S E  H.           S    S E  H.           S    S S Q.     Q    Q     
----------------------|----------------------|-----------------------|
----------------------|----------------------|-----------------------|
----------------------|----------------------|--9-9------------------|
--6-6-----------------|--9-9-----------------|--9-9--------4----6----|
--6-6-----------------|--9-9-----------------|--7-7--------4----6----|
--4-4-----------------|--7-7-----------------|-------------2----4----|


  S E  E  H        E.     S E  S  S  E      E   E   S  S  S E   
-----------------------|---------------------------------------|
-----------------------|---------------------------------------|
--6-6--6---------------|-------8-11-13--13g15--13--11-13-11-8--|
--6-6--6---------------|--6-6--8-11-13--13g15--13--11-13-11-8--|
--4-4--4---------------|--6-6--6--9-11--11g13--11---9-11--9-6--|
-----------------------|--4-4----------------------------------|


  S E  E  H        E.     E  E  E  H        E     S S S H.           S  
-----------------------|-----------------------|-----------------------|
-----------------------|-----------------------|-----------------------|
-----------------------|-----------------------|-----------------------|
--9-9--9---------------|--4--4-----4--------L--|--6-6---6------------L-|
--9-9--9---------------|--4--4-----4--------L--|--6-6---6------------L-|
--7-7--7---------------|--2--2-----2--------L--|--4-4---4------------L-|


  E  H.           E     E  H.           E     E  H.           E   
---------------------|---------------------|---------------------|
---------------------|---------------------|---------------------|
---------------------|--6--6------------L--|--4--4------------L--|
--4--4------------L--|--6--6------------L--|--4--4------------L--|
--4--4------------L--|--4--4------------L--|--2--2------------L--|
--2--2------------L--|---------------------|---------------------|


  H        H           Q    E.  E  E.  Q       Q    E.  E  E.  Q     
--------------------|-----------------------|-----------------------|
--------------------|-----------------------|-----------------------|
--8-----------------|--------------4---4----|--6----6---6--4---4----|
--8-----------------|--6----6---6--4---4----|--6----6---6--4---4----|
--6-----------------|--6----6---6--2---2----|--4----4---4--2---2----|
--------------------|--4----4---4-----------|-----------------------|


  Q    E.  E  E.  Q       Q    E.  E  E.  Q       Q    E.  E  E.  E  E   
-----------------------|-----------------------|------------------------|
-----------------------|-----------------------|------------------------|
--------------4---4----|--6----6---6--4---4----|--------------4---------|
--6----6---6--4---4----|--6----6---6--4---4----|--6----6---6--4---6--5--|
--6----6---6--2---2----|--4----4---4--2---2----|--6----6---6--2---6--5--|
--4----4---4-----------|-----------------------|--4----4---4------4--3--|


  Q    E.  E  E.  E  E     Q    E.  E  E.  E  E     Q    E.  E  E.  E  E   
------------------------|------------------------|------------------------|
------------------------|------------------------|------------------------|
--------------6---6-----|--------------4---------|--------------6---6-----|
--4----4---4--6---6--4--|--6----6---6--4---6--5--|--4----4---4--6---6--4--|
--4----4---4--4---4--4--|--6----6---6--2---6--5--|--4----4---4--4---4--4--|
--2----2---2---------2--|--4----4---4------4--3--|--2----2---2---------2--|


  Q    E.  E  E.  E  E     Q    E.  E  E.  E  E     Q    E.  E  E.  E  E   
------------------------|------------------------|------------------------|
------------------------|------------------------|------------------------|
--------------4---------|--------------6---6-----|--------------4---------|
--6----6---6--4---6--5--|--4----4---4--6---6--4--|--6----6---6--4---6--5--|
--6----6---6--2---6--5--|--4----4---4--4---4--4--|--6----6---6--2---6--5--|
--4----4---4------4--3--|--2----2---2---------2--|--4----4---4------4--3--|


  Q.     S H        S    S E  E  E  E  E  S S S E     S E  E  E  E  Q.     S  
----------------------|----------------------------|-------------------------|
----------------------|----------------------------|-------------------------|
-----------6--------L-|--6-4-----------------------|--6-4--------------------|
--4--------6--------L-|--6-4--6--4--6--4--4-4-5-6--|--6-4--6--4--6-----------|
--4--------4--------L-|--4-2--6--4--6--4--4-4-5-6--|--4-2--6--4--6-----------|
--2-------------------|-------4--2--4--2--2-2-3-4--|-------4--2--4-----------|


  S E  E  E  E  E  S S S E     S E  E  E  E  Q.     S  
----------------------------|-------------------------|
----------------------------|-------------------------|
--6-4-----------------------|--6-4--------------------|
--6-4--6--4--6--4--4-4-5-6--|--6-4--6--4--6-----------|
--4-2--6--4--6--4--4-4-5-6--|--4-2--6--4--6-----------|
-------4--2--4--2--2-2-3-4--|-------4--2--4-----------|


  S E  E  E  E  E  S S S E     S E  E  E  E  Q.     S  
----------------------------|-------------------------|
----------------------------|-------------------------|
--6-4-----------------------|--6-4--------------------|
--6-4--6--4--6--4--4-4-5-6--|--6-4--6--4--6-----------|
--4-2--6--4--6--4--4-4-5-6--|--4-2--6--4--6-----------|
-------4--2--4--2--2-2-3-4--|-------4--2--4-----------|


  S E  E  E  E  E  S S S E     S E  E  E  E  Q.     S    Q    E.  E  E.  Q     
----------------------------|-------------------------|-----------------------|
----------------------------|-------------------------|-----------------------|
--6-4-----------------------|--6-4--------------------|--------------4---4----|
--6-4--6--4--6--4--4-4-5-6--|--6-4--6--4--6-----------|--6----6---6--4---4----|
--4-2--6--4--6--4--4-4-5-6--|--4-2--6--4--6-----------|--6----6---6--2---2----|
-------4--2--4--2--2-2-3-4--|-------4--2--4-----------|--4----4---4-----------|


  Q    E.  E  E.  Q       Q    E.  E  E.  Q       Q    E.  E  E.  Q     
-----------------------|-----------------------|-----------------------|
-----------------------|-----------------------|-----------------------|
--6----6---6--4---4----|--------------4---4----|--6----6---6--4---4----|
--6----6---6--4---4----|--6----6---6--4---4----|--6----6---6--4---4----|
--4----4---4--2---2----|--6----6---6--2---2----|--4----4---4--2---2----|
-----------------------|--4----4---4-----------|-----------------------|


  Q    E.  E  E.  E  E     Q    E.  E  E.  E  E     Q    E.  E  E.  E  E   
------------------------|------------------------|------------------------|
------------------------|------------------------|------------------------|
--------------4---------|--------------6---6-----|--------------4---------|
--6----6---6--4---6--5--|--4----4---4--6---6--4--|--6----6---6--4---6--5--|
--6----6---6--2---6--5--|--4----4---4--4---4--4--|--6----6---6--2---6--5--|
--4----4---4------4--3--|--2----2---2---------2--|--4----4---4------4--3--|


  Q    E.  E  E.  E  E     Q    E.  E  E.  E  E     Q    E.  E  E.  E  E   
------------------------|------------------------|------------------------|
------------------------|------------------------|------------------------|
--------------6---6-----|--------------4---------|--------------6---6-----|
--4----4---4--6---6--4--|--6----6---6--4---6--5--|--4----4---4--6---6--4--|
--4----4---4--4---4--4--|--6----6---6--2---6--5--|--4----4---4--4---4--4--|
--2----2---2---------2--|--4----4---4------4--3--|--2----2---2---------2--|


  Q    E.  E  E.  E  E     Q.     S H        S    Q    E.  E  E.  E  E   
------------------------|----------------------|------------------------|
------------------------|----------------------|------------------------|
--------------4---------|-----------6--------L-|--------------4---------|
--6----6---6--4---6--5--|--4--------6--------L-|--6----6---6--4---6--5--|
--6----6---6--2---6--5--|--4--------4--------L-|--6----6---6--2---6--5--|
--4----4---4------4--3--|--2-------------------|--4----4---4------4--3--|


  Q    E.  E  E.  E  E     Q    E.  E  E.  E  E     Q    E.  E  E.  E  E   
------------------------|------------------------|------------------------|
------------------------|------------------------|------------------------|
--------------6---6-----|--------------4---------|--------------6---6-----|
--4----4---4--6---6--4--|--6----6---6--4---6--5--|--4----4---4--6---6--4--|
--4----4---4--4---4--4--|--6----6---6--2---6--5--|--4----4---4--4---4--4--|
--2----2---2---------2--|--4----4---4------4--3--|--2----2---2---------2--|


  S E  E  E  E  E  S S S E     S E  E  E  E  S E  E  E     Q      
----------------------------|---------------------------|-------||
----------------------------|---------------------------|-------||
--6-4-----------------------|--6-4----------------------|-------||
--6-4--6--4--6--4--4-4-5-6--|--6-4--6--4--6----4--5--6--|--L----||
--4-2--6--4--6--4--4-4-5-6--|--4-2--6--4--6----4--5--6--|--L----||
-------4--2--4--2--2-2-3-4--|-------4--2--4----2--3--4--|--L----||




Duration Legend
---------------
W - whole
H - half
Q - quarter
E - 8th
S - 16th
T - 32nd
X - 64th
. - note dotted
|-n-|  - n-tuplets


Tablature Legend
----------------
L - tied note
x - dead note
g - grace note
(n) - ghost note
> - accentuded note
NH - natural harmonic
AH - artificial harmonic
TH - tapped harmonic
SH - semi harmonic
PH - pitch harmonic
h - hammer on
p - pull off
b - bend
br - bendRelease
pb - preBend
pbr - preBendRelease
brb - bendReleaseBend
\n/ - tremolo bar dip
\n - tremolo bar dive
-/n - tremolo bar Release up
/n\ - tremolo bar inverted dip
/n - tremolo bar return
-\n - tremolo bar Release down
S - shift slide
s - legato slide
/ -  slide into from below or out of upwards
\ -  slide into from above or out of downwards
~ - vibrato
W - wide vibrato
tr - trill
TP - tremolo picking
T - tapping
S - slap
P - pop
< - fade in
^ - brush up
v - brush down
Tap to rate this tab
# A B C D E F G H I J K L M N O P Q R S T U V W X Y Z