Song name
# A B C D E F G H I J K L M N O P Q R S T U V W X Y Z

Eric Martin - Go Go Power Rangers tab

-------------------------------------------------------------------------------------------------
     GO GO POWER RANGERS - Power Rangers Orchestra (feat. Eric Martin and Matt Sorum)
-------------------------------------------------------------------------------------------------
Tabbed by: Guilherme Balde
Email: gui.balde@yahoo.com.br

Tuning: E Standard


Epic intro
e|-----------------------------------------6--6--------------------------------------------|
B|-----------------------------------------7----7------------------------------------------|
G|----13--10--12--13/15--13----//----6--8---------6-----------------------------8h10p8~----|
D|-----------------------------//----6--8------------8\6--6--h8--\10--8----/10-------------|
A|-----------------------------------------------------------------------------------------|
E|-----------------------------------------------------------------------------------------|

e|-----------------------------------------6--6-----------------------------------------|
B|-----------------------------------------7----7---------------------------------------|
G|----13~-------10--12---13----//----6--8---------6-------------------------------------|
D|-----------------------------//----6--8------------8\6--6--h8--\10--8-----------------|
A|-----------------------------------------------------------------------6-6~-----------|
E|--------------------------------------------------------------------------------------|


Intro riff Ab Ab Ab Ab (Ab A)

Intro tappings (base -> E F# Eb G# F# E Eb)
e|-----------------------------------------------------------|
B|-----------------------------------------------------------|
G|---16 p 13 p 9 h 13 h 16 ... --18 p 15 p 11 h 15 h 18 ...--|
D|-----------------------------------------------------------|
A|-----------------------------------------------------------|
E|-----------------------------------------------------------|

e|----------------------------------------------------------|
B|---16 p 11 p 8 h 11 h 16 ... --16 p 12 p 9 h 12 h 16 ...--|
G|----------------------------------------------------------|
D|----------------------------------------------------------|
A|----------------------------------------------------------|
E|----------------------------------------------------------|

e|--------------------------------------------|
B|---17 p 12 p 9 h 12 h 17 ... --16~~~~-------|
G|--------------------------------------------|
D|--------------------------------------------|
A|--------------------------------------------|
E|--------------------------------------------|

Verses
Ab Ab Ab Ab (Ab A)
They got a power and a force that you've never seen before
They got the ability to morph and to even up the score

Bridge
E       F#         Eb    G# F# E
No one could ever take them down
Eb       E Eb E Eb E Eb ... E Eb
The power lies on their side -ia -ia -ia -ide

Chorus
G#         E  F#
Go go power rangers
G#         E  F#
Go go power rangers
A
Go go power rangers
Mighty morphing power rangers

Chorus fill
e|------11--9----------------11--9------------|
B|---9---------11-9--9-12-9---------12--11----|
G|--------------------------------------------|
D|--------------------------------------------|
A|--------------------------------------------|
E|--------------------------------------------|

Post Chorus:
Ab F# G#   F# G#   F# G#   F# G# A A# B C C# D D#

Verses
Ab Ab Ab Ab Ab/A
They know the fate of the world is lying in their hands
They know to only use their weapons for defense

Bridge (repeat)

Chorus (repeats)

Post Chorus:
Ab F# G#   F# G#   F# G#   F# G# A A# B C C# D D#

Solo
e|-----------------------------------------9-5----------------------------|
B|-------------------------------------5-9-----9-5------------------------|
G|---4--------------4----------------6-------------6----------------------|
D|------6-6-6~--4-6---6-6-6~---4-6-7-----------------7-6-4----------------|
A|---------------------------------------------------------7-4------------|
E|-------------------------------------------------------------4-4~-------|

e|---------------------------------7-5-4h5p4------------------------------|
B|-----------------------4-7^--4-7-----------7-5-4------------------------|
G|------------------4-6^---------------------------6-4-3-4-3^r-------3v---|
D|--------6-6~--4-6---------------------------------------------4p2-------|
A|------------------------------------------------------------------------|
E|------------------------------------------------------------------------|

e|------------------------------------------------9-11br-p9---------------|
B|----------------------------------------9-10-12-----------10~-----------|
G|---3v-----------------------------9-11----------------------------------|
D|------8-9-11-8----------10-11-13----------------------------------------|
A|---------------9~-------------------------------------------------------|
E|------------------------------------------------------------------------|

e|---------------------------|
B|-------------5-7/9-9-9v----|
G|------5-6h8----------------|
D|--6------------------------|
A|---------------------------|
E|---------------------------|

        use wah-wah
e|--------------------------------16-16-16----16-16-16----16-16-16-----...--|
B|--------------------------------16-16-16----16-16-16----16-16-16-----...--|
G|--17p14----17p14----...------------------18----------18----------18--...--|
D|--------14-------14-...---------------------------------------------------|
A|--------------------------------------------------------------------------|
E|--------------------------------------------------------------------------|

e|--------------------------------------14-14-14--14-14-14--14-14-14--14-14--...--|
B|--------------------------------------14-14-14--14-14-14--14-14-14--14-14--...--|
G|--17p14-----17p14-----17p14------...--16^-------16^-------16^---16^--------...--|
D|--------16--------16---------16--...--------------------------------------------|
A|--------------------------------------------------------------------------------|
E|--------------------------------------------------------------------------------|

e|---17-17-17--17-17-17--17-17-17--17-17--...--14/16-16-16-16-16-16-16 19p16----16--19^--|
B|---17-17-17--17-17-17--17-17-17--17-17--...--14/16-16-16-16-16-16-16-------19----------|
G|---19^-------19^-------19^---19^--------...--------------------------------------------|
D|---------------------------------------------------------------------------------------|
A|---------------------------------------------------------------------------------------|
E|---------------------------------------------------------------------------------------|

e|---19--16--------------------------------------|
B|-----------19--19p16----19p16----19p16----...--|
G|---------------------18-------18-------18-...--|
D|-----------------------------------------------|
A|-----------------------------------------------|
E|-----------------------------------------------|

Bridge*

Chorus*

Last Chorus
Ab A Ab A Ab A Ab A

Last chorus fill
e|------11--9------------------12--11--9--------|
B|---9---------11-12-------10-------------10----|
G|----------------------------------------------|
D|----------------------------------------------|
A|----------------------------------------------|
E|----------------------------------------------|

___________________________________________________________________
I hope it helps a little ;)

Balde.
Tap to rate this tab
# A B C D E F G H I J K L M N O P Q R S T U V W X Y Z