Song name
# A B C D E F G H I J K L M N O P Q R S T U V W X Y Z

Eric Peterson - Againt tab

Help us improve GuitareTab! Take a short survey!
listen for stops in 3 verse and palm mute at the end

chords:
e|-----------1---3---|
b|---1---1---1---3---|
g|---0---2---2---0---|
d|---2---2---3---0---|
a|---3---0-------2---|
E|---------------3---|
     C   Am  F   G

Intro/Verse:
e|---------------------------------------------------------------1-1-1-1-1-1--|
b|-----1-1-1-1-1-------1-1-1-1-1-1-------1-1-1-1-3-3-3-3-1-1-1-1-1-1-1-1-1-1--|
g|-----0-0-0-0-0-------2-2-2-2-2-2-----0-0-0-0-0-1-1-1-1-2-2-2-2-0h2-2-2-2-2--|
d|-----2-2-2-2-2-----0-2-2-2-2-2-2-0h2---2-2-2-2-0-0-0-0-2-2-2-2-0h3-3-3-3-3--|
a|---3-3-3-3-3-3-0h2---0-0-0-0-0-0-------3-3-3-3---------0-0-0-0--------------|
E|----------------------------------------------------------------------------|

chorus: Am, C, Am, F
        Am, F, G, C
Bridge: C, Am (4x) then...
        F, C, F, Am, C, Am, F
Related for Againt tab