Song name
# A B C D E F G H I J K L M N O P Q R S T U V W X Y Z

Eric Prydz - Pjanoo tab

i took this from a piano tutorial, so its right :)

Melody

E|---6--6--5--5----------------------|
B|---8--8--6--6--8----8--8-----------|
G|---------------7----7--7-----------|
D|-----------------------------------|
A|-----------------------------------|
e|-----------------------------------|

Bassline

E|-------------------------------------------|
B|-------------------------------------------|
G|--12----10---8--------8----10----5---------|
D|-------------------------------------------|
A|--10----8----6--------6----8-----3---------|
e|-------------------------------------------|


E|------------------------------------------|
B|------------------------------------------|
G|--5----7----8--------8----10----12--------|
D|------------------------------------------|
A|--3----5----6--------6----8-----10--------|
e|------------------------------------------|

Hope you like it :)
Tap to rate this tab
 
# A B C D E F G H I J K L M N O P Q R S T U V W X Y Z